  0
SECTION
  2
HEADER
  9
$ACADVER
  1
AC1015
  9
$ACADMAINTVER
 70
    20
  9
$DWGCODEPAGE
  3
ANSI_932
  9
$INSBASE
 10
0.0
 20
0.0
 30
0.0
  9
$EXTMIN
 10
3.191529301916716
 20
2.71005318489631
 30
-0.0000000000000053
  9
$EXTMAX
 10
404.5358285966049
 20
294.199310990981
 30
0.0000000000000099
  9
$LIMMIN
 10
0.0
 20
0.0
  9
$LIMMAX
 10
420.0
 20
297.0
  9
$ORTHOMODE
 70
     0
  9
$REGENMODE
 70
     1
  9
$FILLMODE
 70
     1
  9
$QTEXTMODE
 70
     0
  9
$MIRRTEXT
 70
     1
  9
$LTSCALE
 40
12.0
  9
$ATTMODE
 70
     1
  9
$TEXTSIZE
 40
10.0
  9
$TRACEWID
 40
0.3
  9
$TEXTSTYLE
  7
0
  9
$CLAYER
  8
0
  9
$CELTYPE
  6
ByLayer
  9
$CECOLOR
 62
   256
  9
$CELTSCALE
 40
1.0
  9
$DISPSILH
 70
     0
  9
$DIMSCALE
 40
1.0
  9
$DIMASZ
 40
2.0
  9
$DIMEXO
 40
0.0625
  9
$DIMDLI
 40
0.38
  9
$DIMRND
 40
0.0
  9
$DIMDLE
 40
0.0
  9
$DIMEXE
 40
0.18
  9
$DIMTP
 40
0.0
  9
$DIMTM
 40
0.0
  9
$DIMTXT
 40
2.0
  9
$DIMCEN
 40
0.09
  9
$DIMTSZ
 40
0.0
  9
$DIMTOL
 70
     0
  9
$DIMLIM
 70
     0
  9
$DIMTIH
 70
     1
  9
$DIMTOH
 70
     1
  9
$DIMSE1
 70
     0
  9
$DIMSE2
 70
     0
  9
$DIMTAD
 70
     0
  9
$DIMZIN
 70
     0
  9
$DIMBLK
  1

  9
$DIMASO
 70
     1
  9
$DIMSHO
 70
     0
  9
$DIMPOST
  1

  9
$DIMAPOST
  1

  9
$DIMALT
 70
     0
  9
$DIMALTD
 70
     2
  9
$DIMALTF
 40
25.4
  9
$DIMLFAC
 40
1.0
  9
$DIMTOFL
 70
     0
  9
$DIMTVP
 40
0.0
  9
$DIMTIX
 70
     0
  9
$DIMSOXD
 70
     0
  9
$DIMSAH
 70
     0
  9
$DIMBLK1
  1

  9
$DIMBLK2
  1

  9
$DIMSTYLE
  2
Standard
  9
$DIMCLRD
 70
     0
  9
$DIMCLRE
 70
     0
  9
$DIMCLRT
 70
     0
  9
$DIMTFAC
 40
1.0
  9
$DIMGAP
 40
0.09
  9
$DIMJUST
 70
     0
  9
$DIMSD1
 70
     0
  9
$DIMSD2
 70
     0
  9
$DIMTOLJ
 70
     1
  9
$DIMTZIN
 70
     0
  9
$DIMALTZ
 70
     0
  9
$DIMALTTZ
 70
     0
  9
$DIMUPT
 70
     0
  9
$DIMDEC
 70
     4
  9
$DIMTDEC
 70
     4
  9
$DIMALTU
 70
     2
  9
$DIMALTTD
 70
     2
  9
$DIMTXSTY
  7
STANDARD
  9
$DIMAUNIT
 70
     0
  9
$DIMADEC
 70
     0
  9
$DIMALTRND
 40
0.0
  9
$DIMAZIN
 70
     0
  9
$DIMDSEP
 70
    46
  9
$DIMATFIT
 70
     3
  9
$DIMFRAC
 70
     0
  9
$DIMLDRBLK
  1

  9
$DIMLUNIT
 70
     2
  9
$DIMLWD
 70
    -2
  9
$DIMLWE
 70
    -2
  9
$DIMTMOVE
 70
     0
  9
$LUNITS
 70
     2
  9
$LUPREC
 70
     4
  9
$SKETCHINC
 40
0.1
  9
$FILLETRAD
 40
0.0
  9
$AUNITS
 70
     0
  9
$AUPREC
 70
     1
  9
$MENU
  1
ACAD
  9
$ELEVATION
 40
0.0
  9
$PELEVATION
 40
0.0
  9
$THICKNESS
 40
0.0
  9
$LIMCHECK
 70
     0
  9
$CHAMFERA
 40
0.0
  9
$CHAMFERB
 40
0.0
  9
$CHAMFERC
 40
0.0
  9
$CHAMFERD
 40
0.0
  9
$SKPOLY
 70
     0
  9
$TDCREATE
 40
2450808.702418171
  9
$TDUCREATE
 40
2450808.327418172
  9
$TDUPDATE
 40
2456199.621427952
  9
$TDUUPDATE
 40
2456199.246427952
  9
$TDINDWG
 40
1.6947058912
  9
$TDUSRTIMER
 40
1.6947058912
  9
$USRTIMER
 70
     1
  9
$ANGBASE
 50
0.0
  9
$ANGDIR
 70
     0
  9
$PDMODE
 70
     0
  9
$PDSIZE
 40
0.0
  9
$PLINEWID
 40
1.0
  9
$SPLFRAME
 70
     0
  9
$SPLINETYPE
 70
     6
  9
$SPLINESEGS
 70
     8
  9
$HANDSEED
  5
1C97
  9
$SURFTAB1
 70
     6
  9
$SURFTAB2
 70
     6
  9
$SURFTYPE
 70
     6
  9
$SURFU
 70
     6
  9
$SURFV
 70
     6
  9
$UCSBASE
  2

  9
$UCSNAME
  2

  9
$UCSORG
 10
0.0
 20
0.0
 30
0.0
  9
$UCSXDIR
 10
1.0
 20
0.0
 30
0.0
  9
$UCSYDIR
 10
0.0
 20
1.0
 30
0.0
  9
$UCSORTHOREF
  2

  9
$UCSORTHOVIEW
 70
     0
  9
$UCSORGTOP
 10
0.0
 20
0.0
 30
0.0
  9
$UCSORGBOTTOM
 10
0.0
 20
0.0
 30
0.0
  9
$UCSORGLEFT
 10
0.0
 20
0.0
 30
0.0
  9
$UCSORGRIGHT
 10
0.0
 20
0.0
 30
0.0
  9
$UCSORGFRONT
 10
0.0
 20
0.0
 30
0.0
  9
$UCSORGBACK
 10
0.0
 20
0.0
 30
0.0
  9
$PUCSBASE
  2

  9
$PUCSNAME
  2

  9
$PUCSORG
 10
0.0
 20
0.0
 30
0.0
  9
$PUCSXDIR
 10
1.0
 20
0.0
 30
0.0
  9
$PUCSYDIR
 10
0.0
 20
1.0
 30
0.0
  9
$PUCSORTHOREF
  2

  9
$PUCSORTHOVIEW
 70
     0
  9
$PUCSORGTOP
 10
0.0
 20
0.0
 30
0.0
  9
$PUCSORGBOTTOM
 10
0.0
 20
0.0
 30
0.0
  9
$PUCSORGLEFT
 10
0.0
 20
0.0
 30
0.0
  9
$PUCSORGRIGHT
 10
0.0
 20
0.0
 30
0.0
  9
$PUCSORGFRONT
 10
0.0
 20
0.0
 30
0.0
  9
$PUCSORGBACK
 10
0.0
 20
0.0
 30
0.0
  9
$USERI1
 70
     0
  9
$USERI2
 70
     0
  9
$USERI3
 70
     0
  9
$USERI4
 70
     0
  9
$USERI5
 70
     0
  9
$USERR1
 40
0.0
  9
$USERR2
 40
0.0
  9
$USERR3
 40
0.0
  9
$USERR4
 40
0.0
  9
$USERR5
 40
0.0
  9
$WORLDVIEW
 70
     1
  9
$SHADEDGE
 70
     3
  9
$SHADEDIF
 70
    70
  9
$TILEMODE
 70
     1
  9
$MAXACTVP
 70
    16
  9
$PINSBASE
 10
0.0
 20
0.0
 30
0.0
  9
$PLIMCHECK
 70
     0
  9
$PEXTMIN
 10
1.000000000000000E+20
 20
1.000000000000000E+20
 30
1.000000000000000E+20
  9
$PEXTMAX
 10
-1.000000000000000E+20
 20
-1.000000000000000E+20
 30
-1.000000000000000E+20
  9
$PLIMMIN
 10
0.0
 20
0.0
  9
$PLIMMAX
 10
12.0
 20
9.0
  9
$UNITMODE
 70
     0
  9
$VISRETAIN
 70
     0
  9
$PLINEGEN
 70
     0
  9
$PSLTSCALE
 70
     0
  9
$TREEDEPTH
 70
  3020
  9
$CMLSTYLE
  2
Standard
  9
$CMLJUST
 70
     0
  9
$CMLSCALE
 40
1.0
  9
$PROXYGRAPHICS
 70
     1
  9
$MEASUREMENT
 70
     0
  9
$CELWEIGHT
370
    -1
  9
$ENDCAPS
280
     0
  9
$JOINSTYLE
280
     0
  9
$LWDISPLAY
290
     0
  9
$INSUNITS
 70
     0
  9
$HYPERLINKBASE
  1

  9
$STYLESHEET
  1
monochrome.ctb
  9
$XEDIT
290
     1
  9
$CEPSNTYPE
380
     0
  9
$PSTYLEMODE
290
     1
  9
$FINGERPRINTGUID
  2
{51BC8342-4694-11D4-A1F9-0060672295C7}
  9
$VERSIONGUID
  2
{999D1F4D-5153-44B7-859D-F67F96E03789}
  9
$EXTNAMES
290
     1
  9
$PSVPSCALE
 40
0.0
  9
$OLESTARTUP
290
     0
  0
ENDSEC
  0
SECTION
  2
CLASSES
  0
CLASS
  1
ACDBDICTIONARYWDFLT
  2
AcDbDictionaryWithDefault
  3
ObjectDBX Classes
 90
        0
280
     0
281
     0
  0
CLASS
  1
ACDBPLACEHOLDER
  2
AcDbPlaceHolder
  3
ObjectDBX Classes
 90
        0
280
     0
281
     0
  0
CLASS
  1
LAYOUT
  2
AcDbLayout
  3
ObjectDBX Classes
 90
        0
280
     0
281
     0
  0
CLASS
  1
TABLESTYLE
  2
AcDbTableStyle
  3
ObjectDBX Classes
 90
     2047
280
     0
281
     0
  0
CLASS
  1
DICTIONARYVAR
  2
AcDbDictionaryVar
  3
ObjectDBX Classes
 90
        0
280
     0
281
     0
  0
ENDSEC
  0
SECTION
  2
TABLES
  0
TABLE
  2
VPORT
  5
8
330
0
100
AcDbSymbolTable
 70
     3
  0
VPORT
  5
1C8F
330
8
100
AcDbSymbolTableRecord
100
AcDbViewportTableRecord
  2
*Active
 70
     0
 10
0.0
 20
0.0
 11
1.0
 21
1.0
 12
210.0
 22
148.5
 13
0.0
 23
0.0
 14
0.001
 24
0.001
 15
10.0
 25
10.0
 16
0.0
 26
0.0
 36
1.0
 17
0.0
 27
0.0
 37
0.0
 40
300.6
 41
2.417004048582995
 42
50.0
 43
0.0
 44
0.0
 50
0.0
 51
0.0
 71
     0
 72
  2000
 73
     1
 74
     0
 75
     1
 76
     1
 77
     0
 78
     2
281
     0
 65
     1
110
0.0
120
0.0
130
0.0
111
1.0
121
0.0
131
0.0
112
0.0
122
1.0
132
0.0
 79
     0
146
0.0
  0
ENDTAB
  0
TABLE
  2
LTYPE
  5
5
330
0
100
AcDbSymbolTable
 70
     3
  0
LTYPE
  5
13
330
5
100
AcDbSymbolTableRecord
100
AcDbLinetypeTableRecord
  2
ByBlock
 70
     0
  3

 72
    65
 73
     0
 40
0.0
  0
LTYPE
  5
14
330
5
100
AcDbSymbolTableRecord
100
AcDbLinetypeTableRecord
  2
ByLayer
 70
     0
  3

 72
    65
 73
     0
 40
0.0
  0
LTYPE
  5
15
330
5
100
AcDbSymbolTableRecord
100
AcDbLinetypeTableRecord
  2
CONTINUOUS
 70
     0
  3
実線
 72
    65
 73
     0
 40
0.0
  0
LTYPE
  5
23
330
5
100
AcDbSymbolTableRecord
100
AcDbLinetypeTableRecord
  2
CENTER
 70
     0
  3
____ _ ____ _ ____ _ ____ _ ____ _ ____ _ ____
 72
    65
 73
     4
 40
2.0
 49
1.25
 74
     0
 49
-0.25
 74
     0
 49
0.25
 74
     0
 49
-0.25
 74
     0
  0
LTYPE
  5
24
330
5
100
AcDbSymbolTableRecord
100
AcDbLinetypeTableRecord
  2
HIDDEN
 70
     0
  3
_ _ _ _ _ _ _ _ _ _ _ _ _ _ _ _ _ _ _ _ _ _ _
 72
    65
 73
     2
 40
0.375
 49
0.25
 74
     0
 49
-0.125
 74
     0
  0
ENDTAB
  0
TABLE
  2
LAYER
  5
2
330
0
100
AcDbSymbolTable
 70
     9
  0
LAYER
  5
10
330
2
100
AcDbSymbolTableRecord
100
AcDbLayerTableRecord
  2
0
 70
     0
 62
     7
  6
CONTINUOUS
370
    -3
390
F
  0
LAYER
  5
28
330
2
100
AcDbSymbolTableRecord
100
AcDbLayerTableRecord
  2
HO
 70
     0
 62
     2
  6
CENTER
370
    13
390
F
  0
LAYER
  5
29
330
2
100
AcDbSymbolTableRecord
100
AcDbLayerTableRecord
  2
HA
 70
     0
 62
     4
  6
HIDDEN
370
    13
390
F
  0
LAYER
  5
2A
330
2
100
AcDbSymbolTableRecord
100
AcDbLayerTableRecord
  2
SB
 70
     0
 62
     1
  6
CONTINUOUS
370
    20
390
F
  0
LAYER
  5
2B
330
2
100
AcDbSymbolTableRecord
100
AcDbLayerTableRecord
  2
SA
 70
     0
 62
     7
  6
CONTINUOUS
370
    30
390
F
  0
LAYER
  5
2C
330
2
100
AcDbSymbolTableRecord
100
AcDbLayerTableRecord
  2
MO
 70
     0
 62
     3
  6
CONTINUOUS
370
    20
390
F
  0
LAYER
  5
2D
330
2
100
AcDbSymbolTableRecord
100
AcDbLayerTableRecord
  2
SC
 70
     0
 62
     6
  6
CONTINUOUS
370
    13
390
F
  0
LAYER
  5
2E
330
2
100
AcDbSymbolTableRecord
100
AcDbLayerTableRecord
  2
DEFPOINTS
 70
     0
 62
     7
  6
CONTINUOUS
290
     0
370
    -3
390
F
  0
LAYER
  5
1397
330
2
100
AcDbSymbolTableRecord
100
AcDbLayerTableRecord
  2
sd
 70
     0
 62
     1
  6
CONTINUOUS
370
    20
390
F
  0
ENDTAB
  0
TABLE
  2
STYLE
  5
3
330
0
100
AcDbSymbolTable
 70
     2
  0
STYLE
  5
11
330
3
100
AcDbSymbolTableRecord
100
AcDbTextStyleTableRecord
  2
STANDARD
 70
     0
 40
0.0
 41
1.0
 50
0.0
 71
     0
 42
0.2
  3
TXT
  4

  0
STYLE
  5
22
330
3
100
AcDbSymbolTableRecord
100
AcDbTextStyleTableRecord
  2
0
 70
     0
 40
0.0
 41
1.0
 50
0.0
 71
     0
 42
10.0
  3
SIMPLEX
  4
BIGFONT
  0
ENDTAB
  0
TABLE
  2
VIEW
  5
6
330
0
100
AcDbSymbolTable
 70
     1
  0
VIEW
  5
25
330
6
100
AcDbSymbolTableRecord
100
AcDbViewTableRecord
  2
HYOU
 70
     0
 40
162.519
 10
329.94
 20
84.5855
 41
158.206
 11
0.0
 21
0.0
 31
1.0
 12
0.0
 22
0.0
 32
0.0
 42
0.0
 43
0.0
 44
0.0
 50
0.0
 71
     0
281
     0
 72
     0
  0
ENDTAB
  0
TABLE
  2
UCS
  5
7
330
0
100
AcDbSymbolTable
 70
     0
  0
ENDTAB
  0
TABLE
  2
APPID
  5
9
330
0
100
AcDbSymbolTable
 70
     2
  0
APPID
  5
12
330
9
100
AcDbSymbolTableRecord
100
AcDbRegAppTableRecord
  2
ACAD
 70
     0
  0
APPID
  5
17B3
330
9
100
AcDbSymbolTableRecord
100
AcDbRegAppTableRecord
  2
ACAD_PSEXT
 70
     0
  0
ENDTAB
  0
TABLE
  2
DIMSTYLE
  5
A
330
0
100
AcDbSymbolTable
 70
     1
100
AcDbDimStyleTable
 71
     1
340
3C3
  0
DIMSTYLE
105
3C3
330
A
100
AcDbSymbolTableRecord
100
AcDbDimStyleTableRecord
  2
Standard
 70
     0
 41
2.0
140
2.0
340
11
  0
ENDTAB
  0
TABLE
  2
BLOCK_RECORD
  5
1
330
0
100
AcDbSymbolTable
 70
     0
  0
BLOCK_RECORD
  5
1E
330
1
100
AcDbSymbolTableRecord
100
AcDbBlockTableRecord
  2
*Model_Space
340
21
  0
BLOCK_RECORD
  5
1A
330
1
100
AcDbSymbolTableRecord
100
AcDbBlockTableRecord
  2
*Paper_Space
340
1D
  0
ENDTAB
  0
ENDSEC
  0
SECTION
  2
BLOCKS
  0
BLOCK
  5
31
330
1E
100
AcDbEntity
  8
0
100
AcDbBlockBegin
  2
*Model_Space
 70
     0
 10
0.0
 20
0.0
 30
0.0
  3
*Model_Space
  1

  0
ENDBLK
  5
32
330
1E
100
AcDbEntity
  8
0
100
AcDbBlockEnd
  0
BLOCK
  5
2F
330
1A
100
AcDbEntity
 67
     1
  8
0
100
AcDbBlockBegin
  2
*Paper_Space
 70
     0
 10
0.0
 20
0.0
 30
0.0
  3
*Paper_Space
  1

  0
ENDBLK
  5
30
330
1A
100
AcDbEntity
 67
     1
  8
0
100
AcDbBlockEnd
  0
ENDSEC
  0
SECTION
  2
ENTITIES
  0
TEXT
  5
61
330
1E
100
AcDbEntity
  8
MO
100
AcDbText
 10
328.5
 20
53.5
 30
0.0
 40
4.0
  1

  7
0
 72
     1
 11
328.5
 21
53.5
 31
0.0
100
AcDbText
  0
TEXT
  5
62
330
1E
100
AcDbEntity
  8
MO
100
AcDbText
 10
328.5
 20
47.0
 30
0.0
 40
4.0
  1

  7
0
 72
     1
 11
328.5
 21
47.0
 31
0.0
100
AcDbText
  0
TEXT
  5
63
330
1E
100
AcDbEntity
  8
MO
100
AcDbText
 10
328.5
 20
34.0
 30
0.0
 40
4.0
  1

  7
0
 72
     1
 11
328.5
 21
34.0
 31
0.0
100
AcDbText
  0
TEXT
  5
6E
330
1E
100
AcDbEntity
  8
MO
100
AcDbText
 10
328.204
 20
39.802
 30
0.0
 40
4.0
  1

  7
0
 72
     1
 11
328.204
 21
39.802
 31
0.0
100
AcDbText
  0
TEXT
  5
89
330
1E
100
AcDbEntity
  8
MO
100
AcDbText
 10
82.20200000000009
 20
51.07199999999998
 30
0.0
 40
3.0
  1

  7
0
100
AcDbText
  0
TEXT
  5
8B
330
1E
100
AcDbEntity
  8
MO
100
AcDbText
 10
110.859
 20
51.07199999999998
 30
0.0
 40
3.0
  1

  7
0
100
AcDbText
  0
TEXT
  5
8D
330
1E
100
AcDbEntity
  8
MO
100
AcDbText
 10
360.261
 20
19.91099999999999
 30
0.0
 40
7.0
  1

  7
0
 72
     4
 11
360.261
 21
19.91099999999999
 31
0.0
100
AcDbText
  0
TEXT
  5
91
330
1E
100
AcDbEntity
  8
MO
370
    40
100
AcDbText
 10
194.5322222577219
 20
248.2942159269637
 30
0.0
 40
10.8
  1
2ピース片端子型バンドヒーター
  7
0
100
AcDbText
  0
TEXT
  5
AC
330
1E
100
AcDbEntity
  8
MO
100
AcDbText
 10
103.1910000000001
 20
51.07199999999996
 30
0.0
 40
3.0
  1

  7
0
100
AcDbText
  0
TEXT
  5
1399
330
1E
100
AcDbEntity
  8
MO
100
AcDbText
 10
75.70200000000008
 20
51.07199999999998
 30
0.0
 40
3.0
  1

  7
0
100
AcDbText
  0
TEXT
  5
139C
330
1E
100
AcDbEntity
  8
MO
100
AcDbText
 10
110.859
 20
63.07199999999996
 30
0.0
 40
3.0
  1

  7
0
100
AcDbText
  0
TEXT
  5
139F
330
1E
100
AcDbEntity
  8
SC
100
AcDbText
 10
135.033
 20
64.98099999999995
 30
0.0
 40
2.0
  1

  7
0
100
AcDbText
  0
TEXT
  5
13A0
330
1E
100
AcDbEntity
  8
MO
100
AcDbText
 10
110.859
 20
45.07200000000001
 30
0.0
 40
3.0
  1

  7
0
100
AcDbText
  0
TEXT
  5
148E
330
1E
100
AcDbEntity
  8
MO
100
AcDbText
 10
355.5371320877766
 20
10.917
 30
0.0
 40
5.0
  1
株）
  7
0
 72
     1
 11
359.5371320877766
 21
10.917
 31
0.0
100
AcDbText
  0
TEXT
  5
1491
330
1E
100
AcDbEntity
  8
SC
100
AcDbText
 10
103.7564
 20
117.6597333333333
 30
0.0
 40
0.25
  1

100
AcDbText
  0
TEXT
  5
1492
330
1E
100
AcDbEntity
  8
MO
100
AcDbText
 10
366.81
 20
10.917
 30
0.0
 40
6.0
  1
愛西電熱
  7
0
 72
     1
 11
380.41
 21
10.917
 31
0.0
100
AcDbText
  0
MTEXT
  5
1758
330
1E
100
AcDbEntity
  8
SC
100
AcDbMText
 10
317.637
 20
21.871
 30
0.0
 40
2.5
 41
0.0
 71
     1
 72
     5
  1

  7
0
 73
     1
 44
1.0
1001
ACAD
1000
MTEXTBEGIN
1070
    73
1070
     1
1070
    44
1040
1.0
1070
    74
1070
     0
1000
MTEXTEND
  0
MTEXT
  5
178F
330
1E
100
AcDbEntity
  8
SC
100
AcDbMText
 10
220.1774508739589
 20
61.30926792682226
 30
0.0
 40
5.0
 41
0.0
 71
     1
 72
     5
  1
加工穴、その他変更部がありましたら図面に書き込んで御利用下さい
  7
0
 73
     1
 44
1.0
1001
ACAD
1000
MTEXTBEGIN
1070
    73
1070
     1
1070
    44
1040
1.0
1070
    74
1070
     0
1000
MTEXTEND
  0
LINE
  5
17DC
330
1E
100
AcDbEntity
  8
0
100
AcDbLine
 10
14.99999999999995
 20
30.70499999999999
 30
0.0
 11
14.99999999999995
 21
50.70499999999999
 31
0.0
  0
LINE
  5
17DE
330
1E
100
AcDbEntity
  8
0
100
AcDbLine
 10
24.99999999999994
 20
50.70499999999999
 30
0.0
 11
24.99999999999994
 21
30.705
 31
0.0
  0
LINE
  5
1806
330
1E
100
AcDbEntity
  8
0
100
AcDbLine
 10
14.99999999999995
 20
50.70499999999999
 30
0.0
 11
49.99999999999994
 21
50.70499999999999
 31
0.0
  0
LINE
  5
1807
330
1E
100
AcDbEntity
  8
0
100
AcDbLine
 10
14.99999999999995
 20
40.70499999999999
 30
0.0
 11
49.99999999999994
 21
40.70499999999999
 31
0.0
  0
LINE
  5
1808
330
1E
100
AcDbEntity
  8
0
100
AcDbLine
 10
14.99999999999995
 20
30.70499999999999
 30
0.0
 11
49.99999999999994
 21
30.70499999999999
 31
0.0
  0
LINE
  5
180A
330
1E
100
AcDbEntity
  8
0
100
AcDbLine
 10
159.9999999999999
 20
50.70499999999999
 30
0.0
 11
281.0
 21
50.70499999999999
 31
0.0
  0
TEXT
  5
1814
330
1E
100
AcDbEntity
  8
MO
100
AcDbText
 10
19.18000058282744
 20
43.87999982484505
 30
0.0
 40
3.499999999999999
  1
A
  7
0
100
AcDbText
  0
TEXT
  5
181A
330
1E
100
AcDbEntity
  8
MO
100
AcDbText
 10
91.28012879570206
 20
43.7553613470516
 30
0.0
 40
3.499999999999999
  1
B
  7
0
100
AcDbText
  0
TEXT
  5
1822
330
1E
100
AcDbEntity
  8
MO
100
AcDbText
 10
32.9032818353157
 20
43.07893657328403
 30
0.0
 40
4.375
  1
内径
  7
0
 72
     1
 11
37.7157818353157
 21
43.07893657328403
 31
0.0
100
AcDbText
  0
TEXT
  5
1829
330
1E
100
AcDbEntity
  8
MO
100
AcDbText
 10
107.5739879080579
 20
43.61824969380626
 30
0.0
 40
4.375
  1
巾
  7
0
 72
     1
 11
109.6156545747246
 21
43.61824969380626
 31
0.0
100
AcDbText
  0
TEXT
  5
1844
330
1E
100
AcDbEntity
  8
MO
100
AcDbText
 10
18.85312879570205
 20
33.67336134705161
 30
0.0
 40
3.499999999999999
  1
C
  7
0
100
AcDbText
  0
TEXT
  5
1845
330
1E
100
AcDbEntity
  8
MO
100
AcDbText
 10
32.25766860327968
 20
33.50686474409736
 30
0.0
 40
4.375
  1
材質
  7
0
 72
     1
 11
36.92433526994634
 21
33.50686474409736
 31
0.0
100
AcDbText
  0
LINE
  5
1847
330
1E
100
AcDbEntity
  8
0
100
AcDbLine
 10
49.99999999999994
 20
50.70499999999999
 30
0.0
 11
49.99999999999994
 21
30.70499999999999
 31
0.0
  0
TEXT
  5
1855
330
1E
100
AcDbEntity
  8
MO
100
AcDbText
 10
91.35312879570202
 20
33.6733613470516
 30
0.0
 40
3.499999999999999
  1
D
  7
0
100
AcDbText
  0
TEXT
  5
1856
330
1E
100
AcDbEntity
  8
MO
100
AcDbText
 10
226.088412769654
 20
33.66682550160349
 30
0.0
 40
4.375
  1
数量
  7
0
 72
     1
 11
230.7550794363206
 21
33.66682550160349
 31
0.0
100
AcDbText
  0
LINE
  5
1870
330
1E
100
AcDbEntity
  8
0
100
AcDbLine
 10
14.99999999999994
 20
30.705
 30
0.0
 11
159.9999999999999
 21
30.70499999999999
 31
0.0
  0
LINE
  5
1871
330
1E
100
AcDbEntity
  8
0
100
AcDbLine
 10
87.49999999999992
 20
50.70499999999999
 30
0.0
 11
87.49999999999992
 21
30.70499999999999
 31
0.0
  0
LINE
  5
1873
330
1E
100
AcDbEntity
  8
0
100
AcDbLine
 10
49.99999999999994
 20
50.70499999999999
 30
0.0
 11
159.9999999999999
 21
50.70499999999999
 31
0.0
  0
LINE
  5
1874
330
1E
100
AcDbEntity
  8
0
100
AcDbLine
 10
49.99999999999994
 20
40.70499999999999
 30
0.0
 11
87.49999999999992
 21
40.70499999999999
 31
0.0
  0
LINE
  5
1875
330
1E
100
AcDbEntity
  8
0
100
AcDbLine
 10
49.99999999999994
 20
30.70499999999999
 30
0.0
 11
159.9999999999999
 21
30.70499999999999
 31
0.0
  0
LINE
  5
1884
330
1E
100
AcDbEntity
  8
0
100
AcDbLine
 10
122.4999999999999
 20
40.705
 30
0.0
 11
159.9999999999999
 21
40.705
 31
0.0
  0
LINE
  5
1888
330
1E
100
AcDbEntity
  8
0
100
AcDbLine
 10
14.99999999999994
 20
30.705
 30
0.0
 11
159.9999999999999
 21
30.70499999999999
 31
0.0
  0
LINE
  5
1889
330
1E
100
AcDbEntity
  8
0
100
AcDbLine
 10
17.99999999999994
 20
20.705
 30
0.0
 11
283.2259999999999
 21
20.70499999999999
 31
0.0
  0
LINE
  5
188A
330
1E
100
AcDbEntity
  8
0
100
AcDbLine
 10
17.99999999999994
 20
10.705
 30
0.0
 11
283.2259999999999
 21
10.70499999999998
 31
0.0
  0
TEXT
  5
1892
330
1E
100
AcDbEntity
  8
MO
100
AcDbText
 10
18.0825030365616
 20
28.37468907764135
 30
0.0
 40
2.799999999999999
  1

  7
0
100
AcDbText
  0
TEXT
  5
1893
330
1E
100
AcDbEntity
  8
MO
100
AcDbText
 10
18.31122710757998
 20
21.78303665633006
 30
0.0
 40
3.5
  1
その他詳細：
  7
0
 72
     1
 11
29.86122710757998
 21
21.78303665633006
 31
0.0
100
AcDbText
  0
LINE
  5
18A2
330
1E
100
AcDbEntity
  8
0
100
AcDbLine
 10
87.49999999999992
 20
40.70499999999999
 30
0.0
 11
159.9999999999999
 21
40.70499999999999
 31
0.0
  0
TEXT
  5
18A3
330
1E
100
AcDbEntity
  8
MO
100
AcDbText
 10
226.322471877816
 20
43.55161148403567
 30
0.0
 40
4.375
  1
容量
  7
0
 72
     1
 11
230.9891385444827
 21
43.55161148403567
 31
0.0
100
AcDbText
  0
TEXT
  5
18A5
330
1E
100
AcDbEntity
  8
MO
100
AcDbText
 10
166.1966333931626
 20
43.47752605931685
 30
0.0
 40
4.375
  1
電圧
  7
0
 72
     1
 11
170.8633000598292
 21
43.47752605931685
 31
0.0
100
AcDbText
  0
LINE
  5
18A9
330
1E
100
AcDbEntity
  8
0
100
AcDbLine
 10
159.9999999999999
 20
50.70499999999999
 30
0.0
 11
159.9999999999999
 21
30.70499999999999
 31
0.0
  0
LINE
  5
18AA
330
1E
100
AcDbEntity
  8
0
100
AcDbLine
 10
97.49999999999994
 20
50.70499999999999
 30
0.0
 11
97.49999999999994
 21
30.70499999999999
 31
0.0
  0
LINE
  5
18AB
330
1E
100
AcDbEntity
  8
0
100
AcDbLine
 10
122.4999999999999
 20
50.70499999999999
 30
0.0
 11
122.4999999999999
 21
30.70499999999999
 31
0.0
  0
TEXT
  5
18B4
330
1E
100
AcDbEntity
  8
MO
100
AcDbText
 10
334.7498393399925
 20
3.380574230302642
 30
0.0
 40
3.5
  1
AISEI  DENNETSU CO., LTD
  7
0
100
AcDbText
  0
TEXT
  5
18BD
330
1E
100
AcDbEntity
  8
MO
100
AcDbText
 10
397.7133211714158
 20
11.06163477656134
 30
0.0
 40
5.0
  1
行
  7
0
 72
     1
 11
400.046654504749
 21
11.06163477656134
 31
0.0
100
AcDbText
  0
TEXT
  5
18C6
330
1E
100
AcDbEntity
  8
MO
100
AcDbText
 10
80.18549947051658
 20
43.19699993280605
 30
0.0
 40
4.375
  1
φ
  7
0
 72
     1
 11
82.37299947051658
 21
43.19699993280605
 31
0.0
100
AcDbText
  0
TEXT
  5
18CC
330
1E
100
AcDbEntity
  8
MO
100
AcDbText
 10
150.2635240194453
 20
42.82492724811003
 30
0.0
 40
3.0625
  1
mm
  7
0
 72
     1
 11
154.055190686112
 21
42.82492724811003
 31
0.0
100
AcDbText
  0
TEXT
  5
18D2
330
1E
100
AcDbEntity
  8
MO
100
AcDbText
 10
212.9983333333334
 20
42.769
 30
0.0
 40
4.375
  1
V
  7
0
 72
     1
 11
214.665
 21
42.769
 31
0.0
100
AcDbText
  0
TEXT
  5
18D8
330
1E
100
AcDbEntity
  8
MO
100
AcDbText
 10
267.9991177097082
 20
44.28327818328745
 30
0.0
 40
3.0625
  1
W×2P
  7
0
 72
     1
 11
274.0657843763748
 21
44.28327818328745
 31
0.0
100
AcDbText
  0
TEXT
  5
18DE
330
1E
100
AcDbEntity
  8
MO
100
AcDbText
 10
269.9618249953228
 20
32.63244616812445
 30
0.0
 40
4.375
  1
set
  7
0
 72
     1
 11
274.4409916619895
 21
32.63244616812445
 31
0.0
100
AcDbText
  0
TEXT
  5
18E4
330
1E
100
AcDbEntity
  8
MO
100
AcDbText
 10
53.7897995764133
 20
33.91959994624484
 30
0.0
 40
3.5
  1
SUS・ボンデ鋼鈑
  7
0
 72
     1
 11
68.9897995764133
 21
33.91959994624484
 31
0.0
100
AcDbText
  0
TEXT
  5
18EB
330
1E
100
AcDbEntity
  8
MO
100
AcDbText
 10
17.62914196000259
 20
55.01909017515878
 30
0.0
 40
4.550000000000001
  1
※　下記空欄に記入し、FAXしてください
  7
0
100
AcDbText
  0
LINE
  5
18ED
330
1E
100
AcDbEntity
  8
0
100
AcDbLine
 10
3.193615971125439
 20
267.713
 30
0.0
 11
128.2526159711254
 21
267.713
 31
0.0
  0
LINE
  5
18EE
330
1E
100
AcDbEntity
  8
0
100
AcDbLine
 10
3.193615971125439
 20
255.713
 30
0.0
 11
128.2526159711254
 21
255.7129999999999
 31
0.0
  0
LINE
  5
18EF
330
1E
100
AcDbEntity
  8
0
100
AcDbLine
 10
3.193615971125424
 20
243.713
 30
0.0
 11
128.2526159711254
 21
243.7129999999999
 31
0.0
  0
LINE
  5
18F0
330
1E
100
AcDbEntity
  8
0
100
AcDbLine
 10
3.193615971125424
 20
231.713
 30
0.0
 11
128.2526159711254
 21
231.7129999999999
 31
0.0
  0
TEXT
  5
18F7
330
1E
100
AcDbEntity
  8
MO
100
AcDbText
 10
5.047000000000002
 20
269.7195108252091
 30
0.0
 40
4.375
  1
貴社名：
  7
0
 72
     1
 11
14.08866666666667
 21
269.7195108252091
 31
0.0
100
AcDbText
  0
TEXT
  5
18FF
330
1E
100
AcDbEntity
  8
MO
100
AcDbText
 10
4.762445293775542
 20
259.6404968976157
 30
0.0
 40
4.375
  1
部署・担当者名：
  7
0
 72
     1
 11
24.30411196044222
 21
259.6404968976157
 31
0.0
100
AcDbText
  0
TEXT
  5
190B
330
1E
100
AcDbEntity
  8
MO
100
AcDbText
 10
4.244409610399635
 20
235.1743512486338
 30
0.0
 40
4.375
  1
御連絡先 FAX：
  7
0
 72
     1
 11
23.4735762770663
 21
235.1743512486338
 31
0.0
100
AcDbText
  0
TEXT
  5
1918
330
1E
100
AcDbEntity
  8
MO
100
AcDbText
 10
4.271947869785471
 20
247.7453335828736
 30
0.0
 40
4.375
  1
御連絡先 TEL：
  7
0
 72
     1
 11
22.87611453645213
 21
247.7453335828736
 31
0.0
100
AcDbText
  0
LINE
  5
1923
330
1E
100
AcDbEntity
  8
0
370
    40
100
AcDbLine
 10
315.0881625155811
 20
37.35735115744029
 30
0.0
 11
393.0881625155811
 21
37.35735115744029
 31
0.0
  0
LINE
  5
1924
330
1E
100
AcDbEntity
  8
0
370
    40
100
AcDbLine
 10
315.0881625155811
 20
34.7573511574403
 30
0.0
 11
399.5881625155811
 21
34.7573511574403
 31
0.0
  0
LINE
  5
1925
330
1E
100
AcDbEntity
  8
0
370
    40
100
AcDbLine
 10
393.0881625155811
 20
37.35735115744029
 30
0.0
 11
393.0881625155811
 21
39.95735115744029
 31
0.0
  0
LINE
  5
1926
330
1E
100
AcDbEntity
  8
0
370
    40
100
AcDbLine
 10
393.0881625155811
 20
39.95735115744029
 30
0.0
 11
399.5881625155811
 21
34.7573511574403
 31
0.0
  0
LINE
  5
1927
330
1E
100
AcDbEntity
  8
0
370
    40
100
AcDbLine
 10
315.0881625155811
 20
37.35735115744029
 30
0.0
 11
315.0881625155811
 21
34.7573511574403
 31
0.0
  0
TEXT
  5
192E
330
1E
100
AcDbEntity
  8
MO
370
    40
100
AcDbText
 10
324.6798300677355
 20
38.84484239326316
 30
0.0
 40
7.800000000000001
  1
FAX送信方向
  7
0
 72
     1
 11
353.2426872105926
 21
38.84484239326316
 31
0.0
100
AcDbText
  0
TEXT
  5
1943
330
1E
100
AcDbEntity
  8
0
370
    53
100
AcDbText
 10
86.07465571428523
 20
284.1842971226886
 30
0.0
 40
10.0
  1
愛西電熱　見積依頼書・注文書　フォーム
  7
0
100
AcDbText
  0
TEXT
  5
195E
330
1E
100
AcDbEntity
  8
MO
370
    40
100
AcDbText
 10
313.1463329590498
 20
24.83965109775832
 30
0.0
 40
7.800000000000001
  1
0568-25-2241
  7
0
 72
     1
 11
357.1606186733355
 21
24.83965109775832
 31
0.0
100
AcDbText
  0
LINE
  5
19C2
330
1E
100
AcDbEntity
  8
SC
370
    40
100
AcDbLine
 10
195.036
 20
245.664
 30
0.0
 11
385.6790000000001
 21
245.664
 31
0.0
  0
TEXT
  5
19F0
330
1E
100
AcDbEntity
  8
MO
100
AcDbText
 10
104.7576686032796
 20
33.50686474409736
 30
0.0
 40
4.375
  1
端子
  7
0
 72
     1
 11
109.4243352699463
 21
33.50686474409736
 31
0.0
100
AcDbText
  0
TEXT
  5
19F7
330
1E
100
AcDbEntity
  8
MO
100
AcDbText
 10
128.35646624308
 20
33.91959994624483
 30
0.0
 40
3.5
  1
M4　・　M5
  7
0
 72
     1
 11
141.4897995764133
 21
33.91959994624483
 31
0.0
100
AcDbText
  0
LINE
  5
19F9
330
1E
100
AcDbEntity
  8
0
100
AcDbLine
 10
160.9999999999999
 20
50.70499999999999
 30
0.0
 11
160.9999999999999
 21
30.70499999999999
 31
0.0
  0
LINE
  5
1A00
330
1E
100
AcDbEntity
  8
0
100
AcDbLine
 10
159.9999999999999
 20
40.705
 30
0.0
 11
280.9999999999999
 21
40.70499999999983
 31
0.0
  0
LINE
  5
1A06
330
1E
100
AcDbEntity
  8
0
100
AcDbLine
 10
159.9999999999999
 20
30.70499999999999
 30
0.0
 11
280.9999999999999
 21
30.70499999999997
 31
0.0
  0
LINE
  5
1A08
330
1E
100
AcDbEntity
  8
0
100
AcDbLine
 10
180.9999999999999
 20
50.70499999999999
 30
0.0
 11
180.9999999999999
 21
30.70499999999999
 31
0.0
  0
LINE
  5
1A09
330
1E
100
AcDbEntity
  8
0
100
AcDbLine
 10
220.9999999999999
 20
50.70499999999999
 30
0.0
 11
220.9999999999999
 21
30.70499999999998
 31
0.0
  0
LINE
  5
1A12
330
1E
100
AcDbEntity
  8
0
100
AcDbLine
 10
281.0
 20
50.70499999999999
 30
0.0
 11
280.9999999999999
 21
30.70499999999997
 31
0.0
  0
LINE
  5
1A13
330
1E
100
AcDbEntity
  8
0
100
AcDbLine
 10
241.0
 20
50.70499999999999
 30
0.0
 11
241.0
 21
30.70499999999999
 31
0.0
  0
LINE
  5
1A14
330
1E
100
AcDbEntity
  8
0
100
AcDbLine
 10
220.9999999999999
 20
50.70499999999999
 30
0.0
 11
220.9999999999999
 21
30.70499999999999
 31
0.0
  0
TEXT
  5
1A20
330
1E
100
AcDbEntity
  8
MO
100
AcDbText
 10
163.5716333931626
 20
33.47752605931685
 30
0.0
 40
4.375
  1
穴加工
  7
0
 72
     1
 11
170.8633000598292
 21
33.47752605931685
 31
0.0
100
AcDbText
  0
TEXT
  5
1A26
330
1E
100
AcDbEntity
  8
MO
100
AcDbText
 10
188.5296817384609
 20
33.47752605931685
 30
0.0
 40
4.375
  1
有　・　無
  7
0
 72
     1
 11
201.0713484051275
 21
33.47752605931685
 31
0.0
100
AcDbText
  0
LINE
  5
1B46
330
1E
100
AcDbEntity
  8
HO
100
AcDbLine
 10
215.730999863917
 20
140.1640003074798
 30
0.0
 11
345.8773669043435
 21
140.1640003074798
 31
0.0
  0
ARC
  5
1B4B
330
1E
100
AcDbEntity
  8
SA
100
AcDbCircle
 10
277.2309998639169
 20
140.1640003074798
 30
0.0
 40
50.0
100
AcDbArc
 50
184.9999999999998
 51
175.0000000000001
  0
LINE
  5
1B4C
330
1E
100
AcDbEntity
  8
HO
100
AcDbLine
 10
234.9448319285512
 20
124.7730938578247
 30
0.0
 11
203.7470369184589
 21
113.4180250994125
 31
0.0
  0
LINE
  5
1B4D
330
1E
100
AcDbEntity
  8
SC
100
AcDbLine
 10
221.7442257862335
 20
127.4177105550809
 30
0.0
 11
226.5325077927928
 21
114.2620138640783
 31
0.0
  0
LINE
  5
1B4E
330
1E
100
AcDbEntity
  8
SC
100
AcDbLine
 10
221.2743794758405
 20
127.2467004834181
 30
0.0
 11
226.0626614823998
 21
114.0910037924154
 31
0.0
  0
LINE
  5
1B4F
330
1E
100
AcDbEntity
  8
SC
100
AcDbLine
 10
220.8045331654475
 20
127.0756904117553
 30
0.0
 11
225.5928151720069
 21
113.9199937207525
 31
0.0
  0
LINE
  5
1B50
330
1E
100
AcDbEntity
  8
SB
100
AcDbLine
 10
220.3346868550545
 20
126.9046803400924
 30
0.0
 11
225.122968861614
 21
113.7489836490896
 31
0.0
  0
LINE
  5
1B51
330
1E
100
AcDbEntity
  8
SB
100
AcDbLine
 10
222.2140720966264
 20
127.5887206267437
 30
0.0
 11
227.0023541031858
 21
114.433023935741
 31
0.0
  0
LINE
  5
1B52
330
1E
100
AcDbEntity
  8
SB
100
AcDbLine
 10
227.0023541031858
 20
114.4330239357411
 30
0.0
 11
225.122968861614
 21
113.7489836490896
 31
0.0
  0
LINE
  5
1B53
330
1E
100
AcDbEntity
  8
SB
100
AcDbLine
 10
218.3713495696988
 20
121.1884484777611
 30
0.0
 11
221.1904274320566
 21
122.2145089077381
 31
0.0
  0
LINE
  5
1B54
330
1E
100
AcDbEntity
  8
SB
100
AcDbLine
 10
217.5847032400499
 20
123.3497415055687
 30
0.0
 11
220.4037811024075
 21
124.3758019355457
 31
0.0
  0
LINE
  5
1B55
330
1E
100
AcDbEntity
  8
SB
100
AcDbLine
 10
219.9446422289968
 20
116.8658624221459
 30
0.0
 11
222.7637200913546
 21
117.8919228521229
 31
0.0
  0
LINE
  5
1B56
330
1E
100
AcDbEntity
  8
SB
100
AcDbLine
 10
220.7312885586459
 20
114.7045693943383
 30
0.0
 11
223.5503664210037
 21
115.7306298243153
 31
0.0
  0
LINE
  5
1B57
330
1E
100
AcDbEntity
  8
SB
100
AcDbLine
 10
220.0959629734143
 20
125.221525294253
 30
0.0
 11
223.8581845499967
 21
114.884906465608
 31
0.0
  0
LINE
  5
1B58
330
1E
100
AcDbEntity
  8
SB
100
AcDbLine
 10
224.6099386466255
 20
115.1585225802685
 30
0.0
 11
223.8581845499967
 21
114.884906465608
 31
0.0
  0
LINE
  5
1B59
330
1E
100
AcDbEntity
  8
SB
100
AcDbLine
 10
220.8477170700431
 20
125.4951414089135
 30
0.0
 11
220.0959629734143
 21
125.221525294253
 31
0.0
  0
LINE
  5
1B5A
330
1E
100
AcDbEntity
  8
SB
100
AcDbLine
 10
222.2140720966264
 20
127.5887206267438
 30
0.0
 11
220.3346868550545
 21
126.9046803400924
 31
0.0
  0
ARC
  5
1B5B
330
1E
100
AcDbEntity
  8
SB
100
AcDbCircle
 10
217.0922382879871
 20
118.2752811682093
 30
0.0
 40
3.901666666666711
100
AcDbArc
 50
163.8790561276024
 51
236.120943872396
  0
LINE
  5
1B5C
330
1E
100
AcDbEntity
  8
SB
100
AcDbLine
 10
215.06860745221
 20
123.3917175274607
 30
0.0
 11
218.8308290287923
 21
113.0550986988158
 31
0.0
  0
LINE
  5
1B5D
330
1E
100
AcDbEntity
  8
SB
100
AcDbLine
 10
215.8203615488385
 20
123.6653336421212
 30
0.0
 11
219.582583125421
 21
113.3287148134763
 31
0.0
  0
ARC
  5
1B5E
330
1E
100
AcDbEntity
  8
SB
100
AcDbCircle
 10
222.1195938091914
 20
120.1050889350016
 30
0.0
 40
3.901666666666711
100
AcDbArc
 50
163.8790561276024
 51
236.120943872396
  0
LINE
  5
1B5F
330
1E
100
AcDbEntity
  8
SB
100
AcDbLine
 10
216.5721156454672
 20
123.9389497567817
 30
0.0
 11
220.3343372220497
 21
113.6023309281368
 31
0.0
  0
LINE
  5
1B60
330
1E
100
AcDbEntity
  8
SB
100
AcDbLine
 10
214.9172867077925
 20
115.0360546553536
 30
0.0
 11
217.7363645701502
 21
116.0621150853307
 31
0.0
  0
LINE
  5
1B61
330
1E
100
AcDbEntity
  8
SB
100
AcDbLine
 10
215.7039330374416
 20
112.8747616275461
 30
0.0
 11
218.5230108997991
 21
113.9008220575231
 31
0.0
  0
LINE
  5
1B62
330
1E
100
AcDbEntity
  8
SB
100
AcDbLine
 10
220.3343372220497
 20
113.6023309281368
 30
0.0
 11
218.8308290287923
 21
113.0550986988158
 31
0.0
  0
LINE
  5
1B63
330
1E
100
AcDbEntity
  8
SB
100
AcDbLine
 10
219.633195928232
 20
115.5287008007478
 30
0.0
 11
220.7312885586459
 21
114.7045693943383
 31
0.0
  0
ARC
  5
1B64
330
1E
100
AcDbEntity
  8
SB
100
AcDbCircle
 10
220.8140763216862
 20
115.9585061141938
 30
0.0
 40
1.256666666666669
100
AcDbArc
 50
133.7773160792549
 51
199.9999999999993
  0
LINE
  5
1B65
330
1E
100
AcDbEntity
  8
SB
100
AcDbLine
 10
214.6058404070275
 20
113.6988930339556
 30
0.0
 11
215.7039330374414
 21
112.8747616275461
 31
0.0
  0
ARC
  5
1B66
330
1E
100
AcDbEntity
  8
SB
100
AcDbCircle
 10
215.7867208004818
 20
114.1286983474015
 30
0.0
 40
1.256666666666669
100
AcDbArc
 50
133.7773160792549
 51
199.9999999999993
  0
LINE
  5
1B67
330
1E
100
AcDbEntity
  8
SB
100
AcDbLine
 10
213.3439940484943
 20
119.3586407109688
 30
0.0
 11
216.1630719108521
 21
120.3847011409458
 31
0.0
  0
LINE
  5
1B68
330
1E
100
AcDbEntity
  8
SB
100
AcDbLine
 10
212.5573477188453
 20
121.5199337387764
 30
0.0
 11
215.376425581203
 21
122.5459941687534
 31
0.0
  0
LINE
  5
1B69
330
1E
100
AcDbEntity
  8
SB
100
AcDbLine
 10
216.5721156454673
 20
123.9389497567818
 30
0.0
 11
215.06860745221
 21
123.3917175274607
 31
0.0
  0
LINE
  5
1B6A
330
1E
100
AcDbEntity
  8
SB
100
AcDbLine
 10
217.2732569392848
 20
122.0125798841706
 30
0.0
 11
217.5847032400497
 21
123.3497415055686
 31
0.0
  0
ARC
  5
1B6B
330
1E
100
AcDbEntity
  8
SB
100
AcDbCircle
 10
218.4541373327391
 20
122.4423851976166
 30
0.0
 40
1.256666666666669
100
AcDbArc
 50
199.9999999999993
 51
266.2226839207434
  0
LINE
  5
1B6C
330
1E
100
AcDbEntity
  8
SB
100
AcDbLine
 10
212.2459014180804
 20
120.1827721173784
 30
0.0
 11
212.5573477188453
 21
121.5199337387764
 31
0.0
  0
ARC
  5
1B6D
330
1E
100
AcDbEntity
  8
SB
100
AcDbCircle
 10
213.4267818115347
 20
120.6125774308243
 30
0.0
 40
1.256666666666669
100
AcDbArc
 50
199.9999999999993
 51
266.2226839207434
  0
LINE
  5
1B6E
330
1E
100
AcDbEntity
  8
SC
100
AcDbLine
 10
208.2952191296638
 20
117.7338724754999
 30
0.0
 11
210.0053198462921
 21
113.0354093715703
 31
0.0
  0
LINE
  5
1B6F
330
1E
100
AcDbEntity
  8
SB
100
AcDbLine
 10
207.8469647715685
 20
116.7725879024162
 30
0.0
 11
209.0440352732084
 21
113.4836637296655
 31
0.0
  0
LINE
  5
1B70
330
1E
100
AcDbEntity
  8
SC
100
AcDbLine
 10
209.0440352732084
 20
113.4836637296656
 30
0.0
 11
214.0244061633739
 21
115.2963704892917
 31
0.0
  0
LINE
  5
1B71
330
1E
100
AcDbEntity
  8
SB
100
AcDbLine
 10
210.0053198462921
 20
113.0354093715703
 30
0.0
 11
214.2809212708681
 21
114.5916010237022
 31
0.0
  0
LINE
  5
1B72
330
1E
100
AcDbEntity
  8
SB
100
AcDbLine
 10
209.0440352732084
 20
113.4836637296655
 30
0.0
 11
210.0053198462921
 21
113.0354093715703
 31
0.0
  0
LINE
  5
1B73
330
1E
100
AcDbEntity
  8
SC
100
AcDbLine
 10
207.8469647715685
 20
116.7725879024162
 30
0.0
 11
212.827335661734
 21
118.5852946620424
 31
0.0
  0
LINE
  5
1B74
330
1E
100
AcDbEntity
  8
SB
100
AcDbLine
 10
208.2952191296637
 20
117.7338724754999
 30
0.0
 11
212.5708205542397
 21
119.2900641276319
 31
0.0
  0
LINE
  5
1B75
330
1E
100
AcDbEntity
  8
SB
100
AcDbLine
 10
207.8469647715685
 20
116.7725879024162
 30
0.0
 11
208.2952191296638
 21
117.7338724754999
 31
0.0
  0
ARC
  5
1B76
330
1E
100
AcDbEntity
  8
SA
100
AcDbCircle
 10
277.2309998639169
 20
140.1640003074798
 30
0.0
 40
54.0
100
AcDbArc
 50
9.758256595381501
 51
14.89799375661698
  0
LINE
  5
1B77
330
1E
100
AcDbEntity
  8
SC
100
AcDbLine
 10
222.556092239952
 20
126.6490280059579
 30
0.0
 11
224.4241372874244
 21
128.8752774024108
 31
0.0
  0
LINE
  5
1B78
330
1E
100
AcDbEntity
  8
SC
100
AcDbLine
 10
226.6603339598601
 20
115.3727165565268
 30
0.0
 11
229.5223450160843
 21
114.8680667882286
 31
0.0
  0
LINE
  5
1B79
330
1E
100
AcDbEntity
  8
SC
100
AcDbLine
 10
212.2459014180804
 20
120.1827721173784
 30
0.0
 11
214.6058404070275
 21
113.6988930339556
 31
0.0
  0
CIRCLE
  5
1B7A
330
1E
100
AcDbEntity
  8
SA
100
AcDbCircle
 10
277.2309998639169
 20
140.1640003074798
 30
0.0
 40
53.2
  0
LINE
  5
1B7B
330
1E
100
AcDbEntity
  8
HO
100
AcDbLine
 10
324.5773669043436
 20
130.1640003074798
 30
0.0
 11
346.1773669043436
 21
130.1640003074798
 31
0.0
  0
LINE
  5
1B7C
330
1E
100
AcDbEntity
  8
HO
100
AcDbLine
 10
324.5773669043436
 20
150.1640003074798
 30
0.0
 11
346.1773669043436
 21
150.1640003074798
 31
0.0
  0
CIRCLE
  5
1B7D
330
1E
100
AcDbEntity
  8
SA
100
AcDbCircle
 10
335.3773669043435
 20
130.1640003074798
 30
0.0
 40
5.0
  0
ARC
  5
1B7E
330
1E
100
AcDbEntity
  8
SA
100
AcDbCircle
 10
335.3773669043435
 20
130.1640003074798
 30
0.0
 40
5.799999999999999
100
AcDbArc
 50
231.7522513518051
 51
170.2417434046177
  0
ARC
  5
1B7F
330
1E
100
AcDbEntity
  8
SA
100
AcDbCircle
 10
330.8012315869433
 20
123.8474359282589
 30
0.0
 40
2.0
100
AcDbArc
 50
54.07795274590061
 51
163.0601727082767
  0
ARC
  5
1B80
330
1E
100
AcDbEntity
  8
SA
100
AcDbCircle
 10
330.8012315869433
 20
123.8474359282589
 30
0.0
 40
2.799999999999999
100
AcDbArc
 50
54.07795274590061
 51
163.0601727082767
  0
ARC
  5
1B81
330
1E
100
AcDbEntity
  8
SA
100
AcDbCircle
 10
277.2309998639169
 20
140.1640003074798
 30
0.0
 40
54.0
100
AcDbArc
 50
345.102006243383
 51
349.3280707142375
  0
ARC
  5
1B82
330
1E
100
AcDbEntity
  8
SA
100
AcDbCircle
 10
335.3773669043435
 20
150.1640003074798
 30
0.0
 40
5.799999999999999
100
AcDbArc
 50
189.7582565953815
 51
128.2477486481948
  0
CIRCLE
  5
1B83
330
1E
100
AcDbEntity
  8
SA
100
AcDbCircle
 10
335.3773669043435
 20
150.1640003074798
 30
0.0
 40
5.0
  0
ARC
  5
1B84
330
1E
100
AcDbEntity
  8
SA
100
AcDbCircle
 10
330.8012315869433
 20
156.4805646867007
 30
0.0
 40
2.799999999999999
100
AcDbArc
 50
196.9398272917232
 51
305.9220472540994
  0
ARC
  5
1B85
330
1E
100
AcDbEntity
  8
SA
100
AcDbCircle
 10
330.8012315869433
 20
156.4805646867007
 30
0.0
 40
2.0
100
AcDbArc
 50
196.9398272917232
 51
305.9220472540994
  0
ARC
  5
1B86
330
1E
100
AcDbEntity
  8
SA
100
AcDbCircle
 10
277.2309998639169
 20
140.1640003074798
 30
0.0
 40
54.0
100
AcDbArc
 50
10.67192928576248
 51
14.89799375661698
  0
ARC
  5
1B87
330
1E
100
AcDbEntity
  8
SA
100
AcDbCircle
 10
277.2309998639169
 20
140.1640003074798
 30
0.0
 40
54.0
100
AcDbArc
 50
16.93982729172322
 51
343.060172708276
  0
LINE
  5
1B88
330
1E
100
AcDbEntity
  8
HO
100
AcDbLine
 10
335.3773669043435
 20
166.9640003074797
 30
0.0
 11
335.3773669043435
 21
110.9640003074798
 31
0.0
  0
LINE
  5
1B89
330
1E
100
AcDbEntity
  8
SB
100
AcDbLine
 10
330.3773669043435
 20
155.9640003074798
 30
0.0
 11
340.3773669043435
 21
155.9640003074798
 31
0.0
  0
LINE
  5
1B8A
330
1E
100
AcDbEntity
  8
SA
100
AcDbLine
 10
338.3773669043435
 20
155.9640003074798
 30
0.0
 11
338.3773669043435
 21
155.1278697658761
 31
0.0
  0
LINE
  5
1B8B
330
1E
100
AcDbEntity
  8
SA
100
AcDbLine
 10
332.3773669043435
 20
155.9640003074798
 30
0.0
 11
332.3773669043436
 21
155.1278697658761
 31
0.0
  0
LINE
  5
1B8C
330
1E
100
AcDbEntity
  8
SB
100
AcDbLine
 10
331.1773669043436
 20
161.9640003074798
 30
0.0
 11
339.5773669043434
 21
161.9640003074798
 31
0.0
  0
LINE
  5
1B8D
330
1E
100
AcDbEntity
  8
SB
100
AcDbLine
 10
340.3773669043435
 20
161.1640003074797
 30
0.0
 11
340.3773669043435
 21
155.9640003074798
 31
0.0
  0
LINE
  5
1B8E
330
1E
100
AcDbEntity
  8
SB
100
AcDbLine
 10
330.3773669043435
 20
161.1640003074798
 30
0.0
 11
330.3773669043435
 21
155.9640003074798
 31
0.0
  0
LINE
  5
1B8F
330
1E
100
AcDbEntity
  8
SB
100
AcDbLine
 10
330.3773669043435
 20
161.1640003074798
 30
0.0
 11
340.3773669043435
 21
161.1640003074798
 31
0.0
  0
LINE
  5
1B90
330
1E
100
AcDbEntity
  8
SB
100
AcDbLine
 10
331.1773669043436
 20
161.9640003074798
 30
0.0
 11
330.3773669043435
 21
161.1640003074798
 31
0.0
  0
LINE
  5
1B91
330
1E
100
AcDbEntity
  8
SB
100
AcDbLine
 10
339.5773669043435
 20
161.9640003074798
 30
0.0
 11
340.3773669043435
 21
161.1640003074798
 31
0.0
  0
LINE
  5
1B92
330
1E
100
AcDbEntity
  8
SC
100
AcDbLine
 10
330.3773669043435
 20
159.9403673479064
 30
0.0
 11
334.3537339447701
 21
155.9640003074798
 31
0.0
  0
LINE
  5
1B93
330
1E
100
AcDbEntity
  8
SC
100
AcDbLine
 10
330.3773669043435
 20
161.0010275196862
 30
0.0
 11
335.4143941165499
 21
155.9640003074798
 31
0.0
  0
LINE
  5
1B94
330
1E
100
AcDbEntity
  8
SC
100
AcDbLine
 10
331.2750542883298
 20
161.1640003074798
 30
0.0
 11
336.4750542883297
 21
155.9640003074798
 31
0.0
  0
LINE
  5
1B95
330
1E
100
AcDbEntity
  8
SC
100
AcDbLine
 10
332.3357144601096
 20
161.1640003074798
 30
0.0
 11
337.5357144601095
 21
155.9640003074798
 31
0.0
  0
LINE
  5
1B96
330
1E
100
AcDbEntity
  8
SC
100
AcDbLine
 10
333.3963746318894
 20
161.1640003074798
 30
0.0
 11
338.5963746318894
 21
155.9640003074798
 31
0.0
  0
LINE
  5
1B97
330
1E
100
AcDbEntity
  8
SC
100
AcDbLine
 10
334.4570348036692
 20
161.1640003074798
 30
0.0
 11
339.6570348036691
 21
155.9640003074798
 31
0.0
  0
LINE
  5
1B98
330
1E
100
AcDbEntity
  8
SC
100
AcDbLine
 10
335.5176949754491
 20
161.1640003074798
 30
0.0
 11
340.3773669043435
 21
156.3043283785853
 31
0.0
  0
LINE
  5
1B99
330
1E
100
AcDbEntity
  8
SC
100
AcDbLine
 10
336.578355147229
 20
161.1640003074798
 30
0.0
 11
340.3773669043435
 21
157.3649885503652
 31
0.0
  0
LINE
  5
1B9A
330
1E
100
AcDbEntity
  8
SC
100
AcDbLine
 10
337.6390153190087
 20
161.1640003074798
 30
0.0
 11
340.3773669043435
 21
158.4256487221449
 31
0.0
  0
LINE
  5
1B9B
330
1E
100
AcDbEntity
  8
SC
100
AcDbLine
 10
338.6996754907885
 20
161.1640003074798
 30
0.0
 11
340.3773669043435
 21
159.4863088939248
 31
0.0
  0
LINE
  5
1B9C
330
1E
100
AcDbEntity
  8
SC
100
AcDbLine
 10
339.7603356625684
 20
161.1640003074798
 30
0.0
 11
340.3773669043435
 21
160.5469690657046
 31
0.0
  0
LINE
  5
1B9D
330
1E
100
AcDbEntity
  8
SC
100
AcDbLine
 10
330.3773669043435
 20
158.8797071761266
 30
0.0
 11
333.2930737729903
 21
155.9640003074798
 31
0.0
  0
LINE
  5
1B9E
330
1E
100
AcDbEntity
  8
SC
100
AcDbLine
 10
330.3773669043435
 20
157.8190470043469
 30
0.0
 11
332.2324136012105
 21
155.9640003074798
 31
0.0
  0
LINE
  5
1B9F
330
1E
100
AcDbEntity
  8
SC
100
AcDbLine
 10
330.3773669043435
 20
156.758386832567
 30
0.0
 11
331.1717534294307
 21
155.9640003074798
 31
0.0
  0
LINE
  5
1BA0
330
1E
100
AcDbEntity
  8
SC
100
AcDbLine
 10
340.3773669043435
 20
157.7183868325668
 30
0.0
 11
338.6229803792564
 21
155.9640003074798
 31
0.0
  0
LINE
  5
1BA1
330
1E
100
AcDbEntity
  8
SC
100
AcDbLine
 10
340.3773669043435
 20
158.7790470043466
 30
0.0
 11
337.5623202074767
 21
155.9640003074798
 31
0.0
  0
LINE
  5
1BA2
330
1E
100
AcDbEntity
  8
SC
100
AcDbLine
 10
340.3773669043435
 20
159.8397071761264
 30
0.0
 11
336.5016600356968
 21
155.9640003074798
 31
0.0
  0
LINE
  5
1BA3
330
1E
100
AcDbEntity
  8
SC
100
AcDbLine
 10
331.0950583178985
 20
161.1640003074798
 30
0.0
 11
330.3773669043435
 21
160.4463088939248
 31
0.0
  0
LINE
  5
1BA4
330
1E
100
AcDbEntity
  8
SC
100
AcDbLine
 10
332.1557184896783
 20
161.1640003074798
 30
0.0
 11
330.3773669043435
 21
159.385648722145
 31
0.0
  0
LINE
  5
1BA5
330
1E
100
AcDbEntity
  8
SC
100
AcDbLine
 10
333.2163786614582
 20
161.1640003074798
 30
0.0
 11
330.3773669043435
 21
158.3249885503651
 31
0.0
  0
LINE
  5
1BA6
330
1E
100
AcDbEntity
  8
SC
100
AcDbLine
 10
334.2770388332379
 20
161.1640003074798
 30
0.0
 11
330.3773669043435
 21
157.2643283785853
 31
0.0
  0
LINE
  5
1BA7
330
1E
100
AcDbEntity
  8
SC
100
AcDbLine
 10
335.3376990050179
 20
161.1640003074798
 30
0.0
 11
330.3773669043435
 21
156.2036682068054
 31
0.0
  0
LINE
  5
1BA8
330
1E
100
AcDbEntity
  8
SC
100
AcDbLine
 10
336.3983591767976
 20
161.1640003074798
 30
0.0
 11
331.1983591767977
 21
155.9640003074798
 31
0.0
  0
LINE
  5
1BA9
330
1E
100
AcDbEntity
  8
SC
100
AcDbLine
 10
337.4590193485775
 20
161.1640003074798
 30
0.0
 11
332.2590193485774
 21
155.9640003074798
 31
0.0
  0
LINE
  5
1BAA
330
1E
100
AcDbEntity
  8
SC
100
AcDbLine
 10
338.5196795203573
 20
161.1640003074798
 30
0.0
 11
333.3196795203572
 21
155.9640003074798
 31
0.0
  0
LINE
  5
1BAB
330
1E
100
AcDbEntity
  8
SC
100
AcDbLine
 10
339.5803396921372
 20
161.1640003074798
 30
0.0
 11
334.3803396921371
 21
155.9640003074798
 31
0.0
  0
LINE
  5
1BAC
330
1E
100
AcDbEntity
  8
SC
100
AcDbLine
 10
340.3773669043435
 20
160.9003673479063
 30
0.0
 11
335.440999863917
 21
155.9640003074798
 31
0.0
  0
LINE
  5
1BAD
330
1E
100
AcDbEntity
  8
SC
100
AcDbLine
 10
340.3773669043435
 20
156.657726660787
 30
0.0
 11
339.6836405510363
 21
155.9640003074798
 31
0.0
  0
LINE
  5
1BAE
330
1E
100
AcDbEntity
  8
SA
100
AcDbLine
 10
333.1273669043435
 20
115.9640003074798
 30
0.0
 11
337.6273669043435
 21
115.9640003074798
 31
0.0
  0
LINE
  5
1BAF
330
1E
100
AcDbEntity
  8
SC
100
AcDbLine
 10
332.3773669043435
 20
116.7140003074798
 30
0.0
 11
338.3773669043435
 21
116.7140003074798
 31
0.0
  0
LINE
  5
1BB0
330
1E
100
AcDbEntity
  8
SC
100
AcDbLine
 10
333.1273669043435
 20
155.9640003074798
 30
0.0
 11
333.1273669043435
 21
155.5097930456993
 31
0.0
  0
LINE
  5
1BB1
330
1E
100
AcDbEntity
  8
SC
100
AcDbLine
 10
337.6273669043435
 20
155.9640003074798
 30
0.0
 11
337.6273669043435
 21
155.5097930456993
 31
0.0
  0
LINE
  5
1BB2
330
1E
100
AcDbEntity
  8
SA
100
AcDbLine
 10
332.3773669043435
 20
116.7140003074798
 30
0.0
 11
333.1273669043435
 21
115.9640003074798
 31
0.0
  0
LINE
  5
1BB3
330
1E
100
AcDbEntity
  8
SA
100
AcDbLine
 10
338.3773669043435
 20
116.7140003074798
 30
0.0
 11
337.6273669043435
 21
115.9640003074798
 31
0.0
  0
LINE
  5
1BB4
330
1E
100
AcDbEntity
  8
SC
100
AcDbLine
 10
333.1273669043435
 20
144.8182075692603
 30
0.0
 11
333.1273669043435
 21
135.5097930456993
 31
0.0
  0
LINE
  5
1BB5
330
1E
100
AcDbEntity
  8
SA
100
AcDbLine
 10
332.3773669043435
 20
145.2001308490834
 30
0.0
 11
332.3773669043435
 21
135.1278697658762
 31
0.0
  0
LINE
  5
1BB6
330
1E
100
AcDbEntity
  8
SC
100
AcDbLine
 10
337.6273669043435
 20
144.8182075692603
 30
0.0
 11
337.6273669043435
 21
135.5097930456993
 31
0.0
  0
LINE
  5
1BB7
330
1E
100
AcDbEntity
  8
SA
100
AcDbLine
 10
338.3773669043435
 20
145.2001308490834
 30
0.0
 11
338.3773669043435
 21
135.1278697658762
 31
0.0
  0
LINE
  5
1BB8
330
1E
100
AcDbEntity
  8
SA
100
AcDbLine
 10
338.3773669043435
 20
125.2001308490835
 30
0.0
 11
338.3773669043435
 21
116.7140003074798
 31
0.0
  0
LINE
  5
1BB9
330
1E
100
AcDbEntity
  8
SC
100
AcDbLine
 10
337.6273669043435
 20
124.8182075692603
 30
0.0
 11
337.6273669043435
 21
115.9640003074798
 31
0.0
  0
LINE
  5
1BBA
330
1E
100
AcDbEntity
  8
SC
100
AcDbLine
 10
333.1273669043435
 20
124.8182075692604
 30
0.0
 11
333.1273669043435
 21
115.9640003074798
 31
0.0
  0
LINE
  5
1BBB
330
1E
100
AcDbEntity
  8
SA
100
AcDbLine
 10
332.3773669043435
 20
125.2001308490835
 30
0.0
 11
332.3773669043435
 21
116.7140003074798
 31
0.0
  0
LINE
  5
1BBC
330
1E
100
AcDbEntity
  8
SC
100
AcDbLine
 10
222.556092239952
 20
153.6789726090018
 30
0.0
 11
224.4241372874244
 21
151.4527232125488
 31
0.0
  0
LINE
  5
1BBD
330
1E
100
AcDbEntity
  8
SB
100
AcDbLine
 10
224.6099386466255
 20
165.1694780346911
 30
0.0
 11
223.8581845499967
 21
165.4430941493516
 31
0.0
  0
LINE
  5
1BBE
330
1E
100
AcDbEntity
  8
SC
100
AcDbLine
 10
221.7442257862335
 20
152.9102900598787
 30
0.0
 11
226.5325077927928
 21
166.0659867508814
 31
0.0
  0
LINE
  5
1BBF
330
1E
100
AcDbEntity
  8
SC
100
AcDbLine
 10
221.2743794758405
 20
153.0813001315415
 30
0.0
 11
226.0626614823998
 21
166.2369968225442
 31
0.0
  0
LINE
  5
1BC0
330
1E
100
AcDbEntity
  8
SC
100
AcDbLine
 10
220.8045331654475
 20
153.2523102032044
 30
0.0
 11
225.5928151720069
 21
166.4080068942071
 31
0.0
  0
LINE
  5
1BC1
330
1E
100
AcDbEntity
  8
SB
100
AcDbLine
 10
220.3346868550545
 20
153.4233202748672
 30
0.0
 11
225.122968861614
 21
166.57901696587
 31
0.0
  0
LINE
  5
1BC2
330
1E
100
AcDbEntity
  8
SB
100
AcDbLine
 10
222.2140720966264
 20
152.7392799882159
 30
0.0
 11
227.0023541031858
 21
165.8949766792186
 31
0.0
  0
LINE
  5
1BC3
330
1E
100
AcDbEntity
  8
SC
100
AcDbLine
 10
207.8469647715685
 20
163.5554127125434
 30
0.0
 11
212.827335661734
 21
161.7427059529173
 31
0.0
  0
LINE
  5
1BC4
330
1E
100
AcDbEntity
  8
SB
100
AcDbLine
 10
207.8469647715685
 20
163.5554127125434
 30
0.0
 11
208.2952191296638
 21
162.5941281394597
 31
0.0
  0
LINE
  5
1BC5
330
1E
100
AcDbEntity
  8
SB
100
AcDbLine
 10
207.8469647715685
 20
163.5554127125434
 30
0.0
 11
209.0440352732084
 21
166.8443368852941
 31
0.0
  0
LINE
  5
1BC6
330
1E
100
AcDbEntity
  8
SB
100
AcDbLine
 10
220.0959629734143
 20
155.1064753207067
 30
0.0
 11
223.8581845499967
 21
165.4430941493516
 31
0.0
  0
LINE
  5
1BC7
330
1E
100
AcDbEntity
  8
SB
100
AcDbLine
 10
217.2732569392848
 20
158.315420730789
 30
0.0
 11
217.5847032400497
 21
156.978259109391
 31
0.0
  0
LINE
  5
1BC8
330
1E
100
AcDbEntity
  8
SB
100
AcDbLine
 10
216.5721156454672
 20
156.3890508581779
 30
0.0
 11
220.3343372220497
 21
166.7256696868228
 31
0.0
  0
LINE
  5
1BC9
330
1E
100
AcDbEntity
  8
SB
100
AcDbLine
 10
215.8203615488385
 20
156.6626669728384
 30
0.0
 11
219.582583125421
 21
166.9992858014833
 31
0.0
  0
LINE
  5
1BCA
330
1E
100
AcDbEntity
  8
SB
100
AcDbLine
 10
215.06860745221
 20
156.9362830874989
 30
0.0
 11
218.8308290287923
 21
167.2729019161439
 31
0.0
  0
LINE
  5
1BCB
330
1E
100
AcDbEntity
  8
SB
100
AcDbLine
 10
213.3439940484943
 20
160.9693599039908
 30
0.0
 11
216.1630719108521
 21
159.9432994740138
 31
0.0
  0
LINE
  5
1BCC
330
1E
100
AcDbEntity
  8
SB
100
AcDbLine
 10
214.9172867077925
 20
165.291945959606
 30
0.0
 11
217.7363645701502
 21
164.2658855296289
 31
0.0
  0
LINE
  5
1BCD
330
1E
100
AcDbEntity
  8
SB
100
AcDbLine
 10
215.7039330374416
 20
167.4532389874135
 30
0.0
 11
218.5230108997991
 21
166.4271785574365
 31
0.0
  0
LINE
  5
1BCE
330
1E
100
AcDbEntity
  8
SC
100
AcDbLine
 10
208.2952191296638
 20
162.5941281394597
 30
0.0
 11
210.0053198462921
 21
167.2925912433893
 31
0.0
  0
LINE
  5
1BCF
330
1E
100
AcDbEntity
  8
SC
100
AcDbLine
 10
212.2459014180804
 20
160.1452284975813
 30
0.0
 11
214.6058404070275
 21
166.629107581004
 31
0.0
  0
ARC
  5
1BD0
330
1E
100
AcDbEntity
  8
SB
100
AcDbCircle
 10
217.0922382879871
 20
162.0527194467503
 30
0.0
 40
3.901666666666711
100
AcDbArc
 50
123.8790561276004
 51
196.1209438723976
  0
LINE
  5
1BD1
330
1E
100
AcDbEntity
  8
SC
100
AcDbLine
 10
209.0440352732084
 20
166.844336885294
 30
0.0
 11
214.0244061633739
 21
165.0316301256679
 31
0.0
  0
LINE
  5
1BD2
330
1E
100
AcDbEntity
  8
SB
100
AcDbLine
 10
210.0053198462921
 20
167.2925912433893
 30
0.0
 11
214.2809212708681
 21
165.7363995912574
 31
0.0
  0
LINE
  5
1BD3
330
1E
100
AcDbEntity
  8
SB
100
AcDbLine
 10
209.0440352732084
 20
166.8443368852941
 30
0.0
 11
210.0053198462921
 21
167.2925912433893
 31
0.0
  0
ARC
  5
1BD4
330
1E
100
AcDbEntity
  8
SB
100
AcDbCircle
 10
215.7867208004818
 20
166.1993022675581
 30
0.0
 40
1.256666666666669
100
AcDbArc
 50
160.0000000000006
 51
226.2226839207451
  0
LINE
  5
1BD5
330
1E
100
AcDbEntity
  8
SB
100
AcDbLine
 10
214.6058404070275
 20
166.629107581004
 30
0.0
 11
215.7039330374414
 21
167.4532389874135
 31
0.0
  0
LINE
  5
1BD6
330
1E
100
AcDbEntity
  8
SB
100
AcDbLine
 10
208.2952191296637
 20
162.5941281394597
 30
0.0
 11
212.5708205542397
 21
161.0379364873278
 31
0.0
  0
ARC
  5
1BD7
330
1E
100
AcDbEntity
  8
SB
100
AcDbCircle
 10
213.4267818115347
 20
159.7154231841353
 30
0.0
 40
1.256666666666669
100
AcDbArc
 50
93.77731607925662
 51
160.0000000000006
  0
LINE
  5
1BD8
330
1E
100
AcDbEntity
  8
SB
100
AcDbLine
 10
212.2459014180804
 20
160.1452284975813
 30
0.0
 11
212.5573477188453
 21
158.8080668761833
 31
0.0
  0
LINE
  5
1BD9
330
1E
100
AcDbEntity
  8
SB
100
AcDbLine
 10
212.5573477188453
 20
158.8080668761832
 30
0.0
 11
215.376425581203
 21
157.7820064462062
 31
0.0
  0
LINE
  5
1BDA
330
1E
100
AcDbEntity
  8
SB
100
AcDbLine
 10
219.9446422289968
 20
163.4621381928137
 30
0.0
 11
222.7637200913546
 21
162.4360777628367
 31
0.0
  0
ARC
  5
1BDB
330
1E
100
AcDbEntity
  8
SB
100
AcDbCircle
 10
222.1195938091914
 20
160.222911679958
 30
0.0
 40
3.901666666666711
100
AcDbArc
 50
123.8790561276004
 51
196.1209438723976
  0
LINE
  5
1BDC
330
1E
100
AcDbEntity
  8
SB
100
AcDbLine
 10
219.633195928232
 20
164.7992998142118
 30
0.0
 11
220.7312885586459
 21
165.6234312206213
 31
0.0
  0
LINE
  5
1BDD
330
1E
100
AcDbEntity
  8
SB
100
AcDbLine
 10
220.3343372220497
 20
166.7256696868228
 30
0.0
 11
218.8308290287923
 21
167.2729019161439
 31
0.0
  0
ARC
  5
1BDE
330
1E
100
AcDbEntity
  8
SB
100
AcDbCircle
 10
220.8140763216862
 20
164.3694945007658
 30
0.0
 40
1.256666666666669
100
AcDbArc
 50
160.0000000000006
 51
226.2226839207451
  0
LINE
  5
1BDF
330
1E
100
AcDbEntity
  8
SB
100
AcDbLine
 10
220.7312885586459
 20
165.6234312206213
 30
0.0
 11
223.5503664210037
 21
164.5973707906443
 31
0.0
  0
LINE
  5
1BE0
330
1E
100
AcDbEntity
  8
SB
100
AcDbLine
 10
218.3713495696988
 20
159.1395521371985
 30
0.0
 11
221.1904274320566
 21
158.1134917072215
 31
0.0
  0
ARC
  5
1BE1
330
1E
100
AcDbEntity
  8
SB
100
AcDbCircle
 10
218.4541373327391
 20
157.8856154173431
 30
0.0
 40
1.256666666666669
100
AcDbArc
 50
93.77731607925662
 51
160.0000000000006
  0
LINE
  5
1BE2
330
1E
100
AcDbEntity
  8
SB
100
AcDbLine
 10
216.5721156454673
 20
156.3890508581779
 30
0.0
 11
215.06860745221
 21
156.9362830874989
 31
0.0
  0
LINE
  5
1BE3
330
1E
100
AcDbEntity
  8
SB
100
AcDbLine
 10
220.8477170700431
 20
154.8328592060461
 30
0.0
 11
220.0959629734143
 21
155.1064753207067
 31
0.0
  0
LINE
  5
1BE4
330
1E
100
AcDbEntity
  8
SB
100
AcDbLine
 10
217.5847032400499
 20
156.9782591093909
 30
0.0
 11
220.4037811024075
 21
155.952198679414
 31
0.0
  0
LINE
  5
1BE5
330
1E
100
AcDbEntity
  8
SB
100
AcDbLine
 10
222.2140720966264
 20
152.7392799882159
 30
0.0
 11
220.3346868550545
 21
153.4233202748672
 31
0.0
  0
LINE
  5
1BE6
330
1E
100
AcDbEntity
  8
SC
100
AcDbLine
 10
226.6603339598601
 20
164.9552840584328
 30
0.0
 11
229.5223450160843
 21
165.459933826731
 31
0.0
  0
LINE
  5
1BE7
330
1E
100
AcDbEntity
  8
SB
100
AcDbLine
 10
227.0023541031858
 20
165.8949766792186
 30
0.0
 11
225.122968861614
 21
166.57901696587
 31
0.0
  0
LINE
  5
1BE8
330
1E
100
AcDbEntity
  8
HO
100
AcDbLine
 10
234.9448319285512
 20
155.5549067571349
 30
0.0
 11
203.7470369184589
 21
166.9099755155471
 31
0.0
  0
LINE
  5
1BE9
330
1E
100
AcDbEntity
  8
SA
100
AcDbLine
 10
227.4212649593296
 20
135.8062131700969
 30
0.0
 11
224.2334419254362
 21
135.5273147933044
 31
0.0
  0
LINE
  5
1BEA
330
1E
100
AcDbEntity
  8
SA
100
AcDbLine
 10
227.4212649593296
 20
144.5217874448627
 30
0.0
 11
224.2334419254362
 21
144.8006858216552
 31
0.0
  0
LINE
  5
1BEB
330
1E
100
AcDbEntity
  8
HO
100
AcDbLine
 10
117.230999863917
 20
201.6640003074798
 30
0.0
 11
117.230999863917
 21
78.66400030747984
 31
0.0
  0
LINE
  5
1BEC
330
1E
100
AcDbEntity
  8
SA
100
AcDbLine
 10
172.2309998639169
 20
194.1640003074798
 30
0.0
 11
92.23099986391698
 21
194.1640003074798
 31
0.0
  0
LINE
  5
1BED
330
1E
100
AcDbEntity
  8
SA
100
AcDbLine
 10
172.2309998639169
 20
86.16400030747982
 30
0.0
 11
92.23099986391698
 21
86.1640003074798
 31
0.0
  0
LINE
  5
1BEE
330
1E
100
AcDbEntity
  8
HO
100
AcDbLine
 10
134.7309998639169
 20
165.1998747989187
 30
0.0
 11
99.73099986391698
 21
165.1998747989187
 31
0.0
  0
CIRCLE
  5
1BEF
330
1E
100
AcDbEntity
  8
SA
100
AcDbCircle
 10
117.230999863917
 20
165.1998747989187
 30
0.0
 40
2.5
  0
LINE
  5
1BF0
330
1E
100
AcDbEntity
  8
SA
100
AcDbLine
 10
117.230999863917
 20
169.7998747989188
 30
0.0
 11
121.2147167213253
 21
167.4998747989188
 31
0.0
  0
LINE
  5
1BF1
330
1E
100
AcDbEntity
  8
SA
100
AcDbLine
 10
121.2147167213253
 20
167.4998747989188
 30
0.0
 11
121.2147167213253
 21
162.8998747989187
 31
0.0
  0
LINE
  5
1BF2
330
1E
100
AcDbEntity
  8
SA
100
AcDbLine
 10
117.230999863917
 20
160.5998747989188
 30
0.0
 11
121.2147167213253
 21
162.8998747989187
 31
0.0
  0
LINE
  5
1BF3
330
1E
100
AcDbEntity
  8
SA
100
AcDbLine
 10
117.2309998639168
 20
169.7998747989188
 30
0.0
 11
113.2472830065085
 21
167.4998747989188
 31
0.0
  0
LINE
  5
1BF4
330
1E
100
AcDbEntity
  8
SA
100
AcDbLine
 10
113.2472830065085
 20
167.4998747989188
 30
0.0
 11
113.2472830065085
 21
162.8998747989187
 31
0.0
  0
LINE
  5
1BF5
330
1E
100
AcDbEntity
  8
SA
100
AcDbLine
 10
117.2309998639168
 20
160.5998747989188
 30
0.0
 11
113.2472830065085
 21
162.8998747989187
 31
0.0
  0
CIRCLE
  5
1BF6
330
1E
100
AcDbEntity
  8
SC
100
AcDbCircle
 10
117.230999863917
 20
165.1998747989187
 30
0.0
 40
3.983716857408481
  0
CIRCLE
  5
1BF7
330
1E
100
AcDbEntity
  8
SC
100
AcDbCircle
 10
117.230999863917
 20
165.1998747989187
 30
0.0
 40
1.9
  0
CIRCLE
  5
1BF8
330
1E
100
AcDbEntity
  8
SA
100
AcDbCircle
 10
117.230999863917
 20
165.1998747989187
 30
0.0
 40
7.0
  0
LINE
  5
1BF9
330
1E
100
AcDbEntity
  8
HO
100
AcDbLine
 10
84.73099986391698
 20
140.1640003074798
 30
0.0
 11
179.7309998639169
 21
140.1640003074798
 31
0.0
  0
ARC
  5
1BFA
330
1E
100
AcDbEntity
  8
SA
100
AcDbCircle
 10
117.230999863917
 20
165.1998747989187
 30
0.0
 40
12.5
100
AcDbArc
 50
0.0
 51
180.0
  0
LINE
  5
1BFB
330
1E
100
AcDbEntity
  8
SA
100
AcDbLine
 10
104.730999863917
 20
165.1998747989187
 30
0.0
 11
104.730999863917
 21
115.1281258160409
 31
0.0
  0
LINE
  5
1BFC
330
1E
100
AcDbEntity
  8
SA
100
AcDbLine
 10
129.7309998639169
 20
165.1998747989187
 30
0.0
 11
129.7309998639169
 21
115.1281258160409
 31
0.0
  0
LINE
  5
1BFD
330
1E
100
AcDbEntity
  8
SA
100
AcDbLine
 10
172.2309998639169
 20
194.1640003074798
 30
0.0
 11
172.2309998639169
 21
86.16400030747984
 31
0.0
  0
LINE
  5
1BFE
330
1E
100
AcDbEntity
  8
SA
100
AcDbLine
 10
92.23099986391698
 20
194.1640003074798
 30
0.0
 11
92.23099986391698
 21
86.1640003074798
 31
0.0
  0
ARC
  5
1BFF
330
1E
100
AcDbEntity
  8
SA
100
AcDbCircle
 10
117.230999863917
 20
115.1281258160409
 30
0.0
 40
12.5
100
AcDbArc
 50
180.0
 51
0.0
  0
CIRCLE
  5
1C00
330
1E
100
AcDbEntity
  8
SC
100
AcDbCircle
 10
117.230999863917
 20
115.1281258160409
 30
0.0
 40
1.9
  0
CIRCLE
  5
1C01
330
1E
100
AcDbEntity
  8
SA
100
AcDbCircle
 10
117.230999863917
 20
115.1281258160409
 30
0.0
 40
2.5
  0
CIRCLE
  5
1C02
330
1E
100
AcDbEntity
  8
SC
100
AcDbCircle
 10
117.230999863917
 20
115.1281258160409
 30
0.0
 40
3.983716857408481
  0
LINE
  5
1C03
330
1E
100
AcDbEntity
  8
SA
100
AcDbLine
 10
117.230999863917
 20
110.5281258160409
 30
0.0
 11
121.2147167213253
 21
112.8281258160408
 31
0.0
  0
LINE
  5
1C04
330
1E
100
AcDbEntity
  8
SA
100
AcDbLine
 10
117.230999863917
 20
119.7281258160409
 30
0.0
 11
121.2147167213253
 21
117.4281258160409
 31
0.0
  0
CIRCLE
  5
1C05
330
1E
100
AcDbEntity
  8
SA
100
AcDbCircle
 10
117.230999863917
 20
115.1281258160409
 30
0.0
 40
7.0
  0
LINE
  5
1C06
330
1E
100
AcDbEntity
  8
SA
100
AcDbLine
 10
117.2309998639168
 20
110.5281258160409
 30
0.0
 11
113.2472830065085
 21
112.8281258160408
 31
0.0
  0
LINE
  5
1C07
330
1E
100
AcDbEntity
  8
SA
100
AcDbLine
 10
113.2472830065085
 20
112.8281258160408
 30
0.0
 11
113.2472830065085
 21
117.428125816041
 31
0.0
  0
LINE
  5
1C08
330
1E
100
AcDbEntity
  8
SA
100
AcDbLine
 10
117.2309998639168
 20
119.7281258160409
 30
0.0
 11
113.2472830065085
 21
117.4281258160409
 31
0.0
  0
LINE
  5
1C09
330
1E
100
AcDbEntity
  8
SA
100
AcDbLine
 10
121.2147167213253
 20
112.8281258160408
 30
0.0
 11
121.2147167213253
 21
117.428125816041
 31
0.0
  0
LINE
  5
1C0A
330
1E
100
AcDbEntity
  8
HO
100
AcDbLine
 10
134.7309998639169
 20
115.1281258160409
 30
0.0
 11
99.73099986391698
 21
115.1281258160409
 31
0.0
  0
LINE
  5
1C0B
330
1E
100
AcDbEntity
  8
HA
100
AcDbLine
 10
172.2309998639169
 20
190.1640003074798
 30
0.0
 11
92.23099986391698
 21
190.1640003074798
 31
0.0
  0
LINE
  5
1C0C
330
1E
100
AcDbEntity
  8
HA
100
AcDbLine
 10
172.2309998639169
 20
90.16400030747981
 30
0.0
 11
92.23099986391698
 21
90.16400030747986
 31
0.0
  0
LINE
  5
1C0D
330
1E
100
AcDbEntity
  8
SA
100
AcDbLine
 10
129.7309998639169
 20
135.5273147933044
 30
0.0
 11
104.730999863917
 21
135.5273147933044
 31
0.0
  0
LINE
  5
1C0E
330
1E
100
AcDbEntity
  8
SA
100
AcDbLine
 10
129.7309998639169
 20
144.8006858216551
 30
0.0
 11
104.730999863917
 21
144.8006858216552
 31
0.0
  0
LINE
  5
1C0F
330
1E
100
AcDbEntity
  8
HA
100
AcDbLine
 10
119.7309998639169
 20
144.8006858216552
 30
0.0
 11
92.23099986391698
 21
144.8006858216552
 31
0.0
  0
LINE
  5
1C10
330
1E
100
AcDbEntity
  8
HA
100
AcDbLine
 10
119.7309998639169
 20
135.5273147933044
 30
0.0
 11
91.23099986391691
 21
135.5273147933044
 31
0.0
  0
LINE
  5
1C11
330
1E
100
AcDbEntity
  8
HA
100
AcDbLine
 10
144.7309998639168
 20
135.5273147933044
 30
0.0
 11
172.2309998639169
 21
135.5273147933044
 31
0.0
  0
LINE
  5
1C12
330
1E
100
AcDbEntity
  8
HA
100
AcDbLine
 10
144.7309998639168
 20
144.8006858216552
 30
0.0
 11
172.2309998639169
 21
144.8006858216552
 31
0.0
  0
LINE
  5
1C13
330
1E
100
AcDbEntity
  8
SC
100
AcDbLine
 10
328.0997995867924
 20
186.7833655407602
 30
0.0
 11
242.2126232430969
 21
108.0709590236998
 31
0.0
  0
SOLID
  5
1C14
330
1E
100
AcDbEntity
  8
SC
100
AcDbTrace
 10
311.967858578739
 20
172.5642203335477
 30
0.0
 11
312.530894390735
 21
171.9498628489719
 31
0.0
 12
314.0924489384644
 22
173.9461490272482
 32
0.0
 13
314.0924489384644
 23
173.9461490272482
 33
0.0
  0
SOLID
  5
1C15
330
1E
100
AcDbEntity
  8
SC
100
AcDbTrace
 10
241.9311053370989
 20
108.3781377659877
 30
0.0
 11
242.494141149095
 21
107.763780281412
 31
0.0
 12
240.3695507893695
 22
106.3818515877114
 32
0.0
 13
240.3695507893695
 23
106.3818515877114
 33
0.0
  0
LINE
  5
1C16
330
1E
100
AcDbEntity
  8
SC
100
AcDbLine
 10
172.2309998639168
 20
195.1640003074798
 30
0.0
 11
172.2309998639168
 21
208.6640003074799
 31
0.0
  0
LINE
  5
1C17
330
1E
100
AcDbEntity
  8
SC
100
AcDbLine
 10
92.23099986391698
 20
195.1640003074798
 30
0.0
 11
92.23099986391698
 21
208.6640003074799
 31
0.0
  0
LINE
  5
1C18
330
1E
100
AcDbEntity
  8
SC
100
AcDbLine
 10
169.7309998639168
 20
206.6640003074799
 30
0.0
 11
94.73099986391698
 21
206.6640003074799
 31
0.0
  0
SOLID
  5
1C19
330
1E
100
AcDbEntity
  8
SC
100
AcDbTrace
 10
169.7309998639168
 20
207.0806669741465
 30
0.0
 11
169.7309998639168
 21
206.2473336408132
 31
0.0
 12
172.2309998639168
 22
206.6640003074799
 32
0.0
 13
172.2309998639168
 23
206.6640003074799
 33
0.0
  0
SOLID
  5
1C1A
330
1E
100
AcDbEntity
  8
SC
100
AcDbTrace
 10
94.73099986391698
 20
207.0806669741465
 30
0.0
 11
94.73099986391698
 21
206.2473336408132
 31
0.0
 12
92.23099986391698
 22
206.6640003074799
 32
0.0
 13
92.23099986391698
 23
206.6640003074799
 33
0.0
  0
SOLID
  5
1C1D
330
1E
100
AcDbEntity
  8
SC
100
AcDbTrace
 10
318.6029194121573
 20
178.645007103106
 30
0.0
 11
319.1659552241533
 21
178.0306496185302
 31
0.0
 12
317.041364864428
 22
176.6487209248296
 32
0.0
 13
317.041364864428
 23
176.6487209248296
 33
0.0
  0
TEXT
  5
1C1E
330
1E
100
AcDbEntity
  8
SC
100
AcDbText
 10
319.2362462980598
 20
181.2436639617793
 30
0.0
 40
3.0
  1
t4.5
 50
42.50410078103731
  7
0
100
AcDbText
  0
LINE
  5
1C1F
330
1E
100
AcDbEntity
  8
HO
100
AcDbLine
 10
277.2309998639169
 20
201.6640003074798
 30
0.0
 11
277.2309998639169
 21
78.66400030747984
 31
0.0
  0
CIRCLE
  5
1C2A
330
1E
100
AcDbEntity
  8
SB
100
AcDbCircle
 10
117.230999863917
 20
165.1998747989187
 30
0.0
 40
5.5
  0
CIRCLE
  5
1C2B
330
1E
100
AcDbEntity
  8
SB
100
AcDbCircle
 10
117.230999863917
 20
115.1281258160409
 30
0.0
 40
5.5
  0
CIRCLE
  5
1C2C
330
1E
100
AcDbEntity
  8
SB
100
AcDbCircle
 10
147.2309998639168
 20
115.1281258160409
 30
0.0
 40
5.5
  0
CIRCLE
  5
1C2D
330
1E
100
AcDbEntity
  8
SB
100
AcDbCircle
 10
147.2309998639169
 20
165.1998747989187
 30
0.0
 40
5.5
  0
LINE
  5
1C2E
330
1E
100
AcDbEntity
  8
SA
100
AcDbLine
 10
159.7309998639169
 20
144.8006858216551
 30
0.0
 11
134.7309998639169
 21
144.8006858216552
 31
0.0
  0
LINE
  5
1C2F
330
1E
100
AcDbEntity
  8
SA
100
AcDbLine
 10
159.7309998639168
 20
135.5273147933044
 30
0.0
 11
134.7309998639169
 21
135.5273147933044
 31
0.0
  0
LINE
  5
1C30
330
1E
100
AcDbEntity
  8
HO
100
AcDbLine
 10
164.7309998639169
 20
115.1281258160409
 30
0.0
 11
129.7309998639169
 21
115.1281258160409
 31
0.0
  0
LINE
  5
1C31
330
1E
100
AcDbEntity
  8
SA
100
AcDbLine
 10
151.2147167213253
 20
112.8281258160408
 30
0.0
 11
151.2147167213253
 21
117.428125816041
 31
0.0
  0
LINE
  5
1C32
330
1E
100
AcDbEntity
  8
SA
100
AcDbLine
 10
147.2309998639168
 20
119.7281258160409
 30
0.0
 11
143.2472830065085
 21
117.4281258160409
 31
0.0
  0
LINE
  5
1C33
330
1E
100
AcDbEntity
  8
SA
100
AcDbLine
 10
143.2472830065085
 20
112.8281258160408
 30
0.0
 11
143.2472830065085
 21
117.428125816041
 31
0.0
  0
LINE
  5
1C34
330
1E
100
AcDbEntity
  8
SA
100
AcDbLine
 10
147.2309998639168
 20
110.5281258160409
 30
0.0
 11
143.2472830065085
 21
112.8281258160408
 31
0.0
  0
CIRCLE
  5
1C35
330
1E
100
AcDbEntity
  8
SA
100
AcDbCircle
 10
147.2309998639169
 20
115.1281258160409
 30
0.0
 40
7.0
  0
LINE
  5
1C36
330
1E
100
AcDbEntity
  8
SA
100
AcDbLine
 10
147.2309998639169
 20
119.7281258160409
 30
0.0
 11
151.2147167213253
 21
117.4281258160409
 31
0.0
  0
LINE
  5
1C37
330
1E
100
AcDbEntity
  8
SA
100
AcDbLine
 10
147.2309998639169
 20
110.5281258160409
 30
0.0
 11
151.2147167213253
 21
112.8281258160408
 31
0.0
  0
CIRCLE
  5
1C38
330
1E
100
AcDbEntity
  8
SC
100
AcDbCircle
 10
147.2309998639169
 20
115.1281258160409
 30
0.0
 40
3.983716857408481
  0
CIRCLE
  5
1C39
330
1E
100
AcDbEntity
  8
SA
100
AcDbCircle
 10
147.2309998639169
 20
115.1281258160409
 30
0.0
 40
2.5
  0
CIRCLE
  5
1C3A
330
1E
100
AcDbEntity
  8
SC
100
AcDbCircle
 10
147.2309998639169
 20
115.1281258160409
 30
0.0
 40
1.9
  0
ARC
  5
1C3B
330
1E
100
AcDbEntity
  8
SA
100
AcDbCircle
 10
147.2309998639169
 20
115.1281258160409
 30
0.0
 40
12.5
100
AcDbArc
 50
180.0
 51
0.0
  0
LINE
  5
1C3C
330
1E
100
AcDbEntity
  8
SA
100
AcDbLine
 10
159.7309998639169
 20
165.1998747989187
 30
0.0
 11
159.7309998639169
 21
115.1281258160409
 31
0.0
  0
LINE
  5
1C3D
330
1E
100
AcDbEntity
  8
SA
100
AcDbLine
 10
134.7309998639169
 20
165.1998747989187
 30
0.0
 11
134.7309998639169
 21
115.1281258160409
 31
0.0
  0
ARC
  5
1C3E
330
1E
100
AcDbEntity
  8
SA
100
AcDbCircle
 10
147.2309998639169
 20
165.1998747989187
 30
0.0
 40
12.5
100
AcDbArc
 50
0.0
 51
180.0
  0
CIRCLE
  5
1C3F
330
1E
100
AcDbEntity
  8
SA
100
AcDbCircle
 10
147.2309998639169
 20
165.1998747989187
 30
0.0
 40
7.0
  0
CIRCLE
  5
1C40
330
1E
100
AcDbEntity
  8
SC
100
AcDbCircle
 10
147.2309998639169
 20
165.1998747989187
 30
0.0
 40
1.9
  0
CIRCLE
  5
1C41
330
1E
100
AcDbEntity
  8
SC
100
AcDbCircle
 10
147.2309998639169
 20
165.1998747989187
 30
0.0
 40
3.983716857408481
  0
LINE
  5
1C42
330
1E
100
AcDbEntity
  8
SA
100
AcDbLine
 10
147.2309998639168
 20
160.5998747989188
 30
0.0
 11
143.2472830065085
 21
162.8998747989187
 31
0.0
  0
LINE
  5
1C43
330
1E
100
AcDbEntity
  8
SA
100
AcDbLine
 10
143.2472830065085
 20
167.4998747989188
 30
0.0
 11
143.2472830065085
 21
162.8998747989187
 31
0.0
  0
LINE
  5
1C44
330
1E
100
AcDbEntity
  8
SA
100
AcDbLine
 10
147.2309998639168
 20
169.7998747989188
 30
0.0
 11
143.2472830065085
 21
167.4998747989188
 31
0.0
  0
LINE
  5
1C45
330
1E
100
AcDbEntity
  8
SA
100
AcDbLine
 10
147.2309998639169
 20
160.5998747989188
 30
0.0
 11
151.2147167213253
 21
162.8998747989187
 31
0.0
  0
LINE
  5
1C46
330
1E
100
AcDbEntity
  8
SA
100
AcDbLine
 10
151.2147167213253
 20
167.4998747989188
 30
0.0
 11
151.2147167213253
 21
162.8998747989187
 31
0.0
  0
LINE
  5
1C47
330
1E
100
AcDbEntity
  8
SA
100
AcDbLine
 10
147.2309998639169
 20
169.7998747989188
 30
0.0
 11
151.2147167213253
 21
167.4998747989188
 31
0.0
  0
CIRCLE
  5
1C48
330
1E
100
AcDbEntity
  8
SA
100
AcDbCircle
 10
147.2309998639169
 20
165.1998747989187
 30
0.0
 40
2.5
  0
LINE
  5
1C49
330
1E
100
AcDbEntity
  8
HO
100
AcDbLine
 10
164.7309998639169
 20
165.1998747989187
 30
0.0
 11
129.7309998639169
 21
165.1998747989187
 31
0.0
  0
LINE
  5
1C4A
330
1E
100
AcDbEntity
  8
HO
100
AcDbLine
 10
147.2309998639169
 20
201.6640003074798
 30
0.0
 11
147.2309998639169
 21
78.66400030747984
 31
0.0
  0
LINE
  5
1C4B
330
1E
100
AcDbEntity
  8
HA
100
AcDbLine
 10
129.7309998639169
 20
144.8006858216551
 30
0.0
 11
134.7309998639169
 21
144.8006858216552
 31
0.0
  0
LINE
  5
1C4C
330
1E
100
AcDbEntity
  8
HA
100
AcDbLine
 10
129.7309998639169
 20
135.5273147933044
 30
0.0
 11
134.7309998639169
 21
135.5273147933044
 31
0.0
  0
TEXT
  5
1C57
330
1E
100
AcDbEntity
  8
MO
100
AcDbText
 10
328.6009257400896
 20
202.2409995525605
 30
0.0
 40
3.599999999999999
  1
ヒーターバンド
  7
0
100
AcDbText
  0
TEXT
  5
1C58
330
1E
100
AcDbEntity
  8
MO
100
AcDbText
 10
316.5254462090273
 20
208.1922072125701
 30
0.0
 40
3.599999999999999
  1
ヒーター（C）
  7
0
100
AcDbText
  0
LINE
  5
1C59
330
1E
100
AcDbEntity
  8
SC
100
AcDbLine
 10
314.1713131283495
 20
207.3114877370683
 30
0.0
 11
358.8249251639733
 21
207.3114877370683
 31
0.0
  0
LINE
  5
1C5A
330
1E
100
AcDbEntity
  8
SC
100
AcDbLine
 10
299.9369992730573
 20
186.8569998947063
 30
0.0
 11
314.1713131283495
 21
207.3114877370683
 31
0.0
  0
CIRCLE
  5
1C5B
330
1E
100
AcDbEntity
  8
SC
100
AcDbCircle
 10
299.9369992730573
 20
186.8569998947063
 30
0.0
 40
0.4
  0
TEXT
  5
1C64
330
1E
100
AcDbEntity
  8
MO
100
AcDbText
 10
347.5046860977331
 20
175.2218351489574
 30
0.0
 40
3.599999999999999
  1
キャップボルト
  7
0
100
AcDbText
  0
LINE
  5
1C65
330
1E
100
AcDbEntity
  8
SC
100
AcDbLine
 10
342.9359250842851
 20
174.8930004487567
 30
0.0
 11
386.456925084285
 21
174.8930004487567
 31
0.0
  0
LWPOLYLINE
  5
1C66
330
1E
100
AcDbEntity
  8
SC
100
AcDbPolyline
 90
        2
 70
     0
 43
0.0
 10
337.6159643279429
 20
164.3447323117401
 10
342.9359250842851
 20
174.8930004487567
1001
ACAD
1000
DSTYLE
1002
{
1070
   147
1040
0.09
1070
    40
1040
10.0
1070
    41
1040
0.25
1070
    42
1040
0.1
1070
    43
1040
0.6
1070
    44
1040
0.2
1070
    73
1070
     0
1070
    74
1070
     0
1070
    77
1070
     0
1070
   140
1040
0.3
1070
   172
1070
     1
1070
   179
1070
     1
1070
   271
1070
     0
1070
   272
1070
     0
1070
   279
1070
     2
1070
   340
1005
22
1002
}
  0
SOLID
  5
1C67
330
1E
100
AcDbEntity
  8
SC
100
AcDbTrace
 10
338.0127529717734
 20
164.2175714559778
 30
0.0
 11
336.852999193369
 21
161.9640004487566
 31
0.0
 12
337.2191756841123
 22
164.4718931675024
 32
0.0
 13
337.2191756841123
 23
164.4718931675024
 33
0.0
1001
ACAD
1000
DSTYLE
1002
{
1070
   147
1040
0.09
1070
    40
1040
10.0
1070
    41
1040
0.25
1070
    42
1040
0.1
1070
    43
1040
0.6
1070
    44
1040
0.2
1070
    73
1070
     0
1070
    74
1070
     0
1070
    77
1070
     0
1070
   140
1040
0.3
1070
   172
1070
     1
1070
   179
1070
     1
1070
   271
1070
     0
1070
   272
1070
     0
1070
   279
1070
     2
1070
   340
1005
22
1002
}
  0
TEXT
  5
1C71
330
1E
100
AcDbEntity
  8
MO
100
AcDbText
 10
247.880075853163
 20
198.0430715261623
 30
0.0
 40
3.599999999999999
  1
（D）
  7
0
100
AcDbText
  0
TEXT
  5
1C72
330
1E
100
AcDbEntity
  8
MO
100
AcDbText
 10
228.6066307721123
 20
202.9576716870374
 30
0.0
 40
3.599999999999999
  1
ターミナル端子
  7
0
100
AcDbText
  0
LINE
  5
1C73
330
1E
100
AcDbEntity
  8
SC
100
AcDbLine
 10
225.73970430508
 20
202.5326713988575
 30
0.0
 11
259.0926892549119
 21
202.5326713988575
 31
0.0
  0
LWPOLYLINE
  5
1C74
330
1E
100
AcDbEntity
  8
SC
100
AcDbPolyline
 90
        2
 70
     0
 43
0.0
 10
211.7030691268851
 20
169.3315432847843
 10
225.73970430508
 20
202.5326713988575
1001
ACAD
1000
DSTYLE
1002
{
1070
   147
1040
0.09
1070
    40
1040
10.0
1070
    41
1040
0.25
1070
    42
1040
0.1
1070
    43
1040
0.6
1070
    44
1040
0.2
1070
    73
1070
     0
1070
    74
1070
     0
1070
    77
1070
     0
1070
   140
1040
0.3
1070
   172
1070
     1
1070
   179
1070
     1
1070
   271
1070
     0
1070
   272
1070
     0
1070
   279
1070
     2
1070
   340
1005
22
1002
}
  0
SOLID
  5
1C75
330
1E
100
AcDbEntity
  8
SC
100
AcDbTrace
 10
212.0867110252795
 20
169.1689702091921
 30
0.0
 11
210.7276306733319
 21
167.0296918944184
 31
0.0
 12
211.3194272284908
 22
169.4941163603765
 32
0.0
 13
211.3194272284908
 23
169.4941163603765
 33
0.0
1001
ACAD
1000
DSTYLE
1002
{
1070
   147
1040
0.09
1070
    40
1040
10.0
1070
    41
1040
0.25
1070
    42
1040
0.1
1070
    43
1040
0.6
1070
    44
1040
0.2
1070
    73
1070
     0
1070
    74
1070
     0
1070
    77
1070
     0
1070
   140
1040
0.3
1070
   172
1070
     1
1070
   179
1070
     1
1070
   271
1070
     0
1070
   272
1070
     0
1070
   279
1070
     2
1070
   340
1005
22
1002
}
  0
TEXT
  5
1C7B
330
1E
100
AcDbEntity
  8
MO
100
AcDbText
 10
128.6429998869687
 20
207.808000114199
 30
0.0
 40
6.0
  1
B
  7
0
100
AcDbText
  0
TEXT
  5
1C81
330
1E
100
AcDbEntity
  8
MO
100
AcDbText
 10
285.9307623904822
 20
149.8590001375508
 30
0.0
 40
6.0
  1
A　φ
 50
42.50410078103731
  7
0
100
AcDbText
  0
ENDSEC
  0
SECTION
  2
OBJECTS
  0
DICTIONARY
  5
C
330
0
100
AcDbDictionary
281
     1
  3
ACAD_COLOR
350
1793
  3
ACAD_GROUP
350
D
  3
ACAD_LAYOUT
350
19
  3
ACAD_MATERIAL
350
1792
  3
ACAD_MLINESTYLE
350
16
  3
ACAD_PLOTSETTINGS
350
18
  3
ACAD_PLOTSTYLENAME
350
E
  3
ACAD_TABLESTYLE
350
17A5
  3
ACDBHEADERROUNDTRIPXREC
350
1C90
  3
AcDbVariableDictionary
350
17B5
  0
DICTIONARY
  5
1793
102
{ACAD_REACTORS
330
C
102
}
330
C
100
AcDbDictionary
281
     1
  0
DICTIONARY
  5
D
102
{ACAD_REACTORS
330
C
102
}
330
C
100
AcDbDictionary
281
     1
  0
DICTIONARY
  5
19
102
{ACAD_REACTORS
330
C
102
}
330
C
100
AcDbDictionary
281
     1
  3
Model
350
21
  3
ﾚｲｱｳﾄ1
350
1D
  0
DICTIONARY
  5
1792
102
{ACAD_REACTORS
330
C
102
}
330
C
100
AcDbDictionary
281
     1
  0
DICTIONARY
  5
16
102
{ACAD_REACTORS
330
C
102
}
330
C
100
AcDbDictionary
281
     1
  3
Standard
350
17
  0
DICTIONARY
  5
18
102
{ACAD_REACTORS
330
C
102
}
330
C
100
AcDbDictionary
281
     1
  0
ACDBDICTIONARYWDFLT
  5
E
102
{ACAD_REACTORS
330
C
102
}
330
C
100
AcDbDictionary
281
     1
  3
Normal
350
F
100
AcDbDictionaryWithDefault
340
F
  0
DICTIONARY
  5
17A5
102
{ACAD_REACTORS
330
C
102
}
330
C
100
AcDbDictionary
281
     1
  3
Standard
350
17A6
  0
DICTIONARY
  5
1C90
102
{ACAD_REACTORS
330
C
102
}
330
C
100
AcDbDictionary
281
     1
  3
COLORDICT
350
1C92
  3
MATERIALDICT
350
1C91
  0
DICTIONARY
  5
17B5
102
{ACAD_REACTORS
330
C
102
}
330
C
100
AcDbDictionary
281
     1
  3
CTABLESTYLE
350
17B6
  3
DIMASSOC
350
1C8D
  3
PROJECTNAME
350
1C8E
  0
LAYOUT
  5
21
102
{ACAD_XDICTIONARY
360
1C95
102
}
102
{ACAD_REACTORS
330
19
102
}
330
19
100
AcDbPlotSettings
  1

  2
\\AISEI\FX DocuPrint 205
  4
A4
  6
HYOU
 40
4.900083065032958
 41
4.900057315826416
 42
4.90008544921875
 43
4.90008544921875
 44
210.0156707763672
 45
297.0106506347656
 46
-1.0
 47
10.0
 48
0.0
 49
0.0
140
0.0
141
0.0
142
1.0
143
1.483401617978499
 70
 11952
 72
     1
 73
     1
 74
     2
  7
monochrome.ctb
 75
     0
147
0.6741262702428131
148
0.0
149
0.0
100
AcDbLayout
  1
Model
 70
     1
 71
     0
 10
0.0
 20
0.0
 11
12.0
 21
9.0
 12
0.0
 22
0.0
 32
0.0
 14
0.0
 24
0.0
 34
0.0
 15
0.0
 25
0.0
 35
0.0
146
0.0
 13
0.0
 23
0.0
 33
0.0
 16
1.0
 26
0.0
 36
0.0
 17
0.0
 27
1.0
 37
0.0
 76
     0
330
1E
1001
ACAD_PSEXT
1000
FX DocuPrint 205
1000
FX DocuPrint 205
1000
USB001
1000

1070
     0
  0
LAYOUT
  5
1D
102
{ACAD_XDICTIONARY
360
1C93
102
}
102
{ACAD_REACTORS
330
19
102
}
330
19
100
AcDbPlotSettings
  1

  2
EPSON LP-1500S
  4

  6

 40
0.0
 41
0.0
 42
0.0
 43
0.0
 44
0.0
 45
0.0
 46
0.0
 47
0.0
 48
0.0
 49
0.0
140
0.0
141
0.0
142
1.0
143
1.0
 70
   688
 72
     0
 73
     0
 74
     5
  7
monochrome.ctb
 75
    16
147
1.0
148
0.0
149
0.0
100
AcDbLayout
  1
ﾚｲｱｳﾄ1
 70
     0
 71
     1
 10
0.0
 20
0.0
 11
12.0
 21
9.0
 12
0.0
 22
0.0
 32
0.0
 14
1.000000000000000E+20
 24
1.000000000000000E+20
 34
1.000000000000000E+20
 15
-1.000000000000000E+20
 25
-1.000000000000000E+20
 35
-1.000000000000000E+20
146
0.0
 13
0.0
 23
0.0
 33
0.0
 16
1.0
 26
0.0
 36
0.0
 17
0.0
 27
1.0
 37
0.0
 76
     0
330
1A
  0
MLINESTYLE
  5
17
102
{ACAD_REACTORS
330
16
102
}
330
16
100
AcDbMlineStyle
  2
STANDARD
 70
     0
  3

 62
   256
 51
90.0
 52
90.0
 71
     2
 49
0.5
 62
   256
  6
BYLAYER
 49
-0.5
 62
   256
  6
BYLAYER
  0
ACDBPLACEHOLDER
  5
F
102
{ACAD_REACTORS
330
E
102
}
330
E
  0
ACAD_PROXY_OBJECT
  5
17A6
102
{ACAD_REACTORS
330
17A5
102
}
330
17A5
100
AcDbProxyObject
 90
      499
 91
      503
 95
       25
 70
     0
 93
     1841
310
4214DD185B99185C9928B81E85EB51B8AE3F2E07A17AD46E2B8FC02B5E8DC0F42B1CFD028000000C1008070000C3001FDFF8000000C1003FBFF000000182007F7FE00000030400FEFFC00000060801FDFF8000000C1003FBFF00000018200000000000000681FA0B0000001820100E000186003FBFF000000182007F7FE000
310
00030400FEFFC00000060801FDFF8000000C1003FBFF000000182007F7FE000000304000AD7A3703D0AC73F4160000003040201C00030C007F7FE00000030400FEFFC00000060801FDFF8000000C1003FBFF000000182007F7FE00000030400FEFFC000000608000
340
11
340
11
340
11
 94
        0
1001
ACAD
1000
AcRTDxfName
1000
TABLESTYLE
  0
XRECORD
  5
1C92
102
{ACAD_REACTORS
330
1C90
102
}
330
1C90
100
AcDbXrecord
280
     1
340
1793
  0
XRECORD
  5
1C91
102
{ACAD_REACTORS
330
1C90
102
}
330
1C90
100
AcDbXrecord
280
     1
340
1792
  0
DICTIONARYVAR
  5
17B6
102
{ACAD_REACTORS
330
17B5
102
}
330
17B5
100
DictionaryVariables
280
     0
  1
STANDARD
  0
DICTIONARYVAR
  5
1C8D
102
{ACAD_REACTORS
330
17B5
102
}
330
17B5
100
DictionaryVariables
280
     0
  1
1
  0
DICTIONARYVAR
  5
1C8E
102
{ACAD_REACTORS
330
17B5
102
}
330
17B5
100
DictionaryVariables
280
     0
  1

  0
DICTIONARY
  5
1C95
330
21
100
AcDbDictionary
280
     1
281
     1
  3
ACAD_XREC_ROUNDTRIP
360
1C96
  0
DICTIONARY
  5
1C93
330
1D
100
AcDbDictionary
280
     1
281
     1
  3
ACAD_XREC_ROUNDTRIP
360
1C94
  0
XRECORD
  5
1C96
102
{ACAD_REACTORS
330
1C95
102
}
330
1C95
100
AcDbXrecord
280
     1
102
SHADEPLOT
 70
     0
102
SHADEPLOTRESLEVEL
 70
     2
102
SHADEPLOTCUSTOMDPI
 70
   300
  0
XRECORD
  5
1C94
102
{ACAD_REACTORS
330
1C93
102
}
330
1C93
100
AcDbXrecord
280
     1
102
SHADEPLOT
 70
     0
102
SHADEPLOTRESLEVEL
 70
     2
102
SHADEPLOTCUSTOMDPI
 70
   300
  0
ENDSEC
  0
EOF
