  0
SECTION
  2
HEADER
  9
$ACADVER
  1
AC1015
  9
$ACADMAINTVER
 70
    20
  9
$DWGCODEPAGE
  3
ANSI_932
  9
$INSBASE
 10
0.0
 20
0.0
 30
0.0
  9
$EXTMIN
 10
3.191529301916716
 20
2.71005318489631
 30
-0.0000000000000053
  9
$EXTMAX
 10
404.5358285966049
 20
294.199310990981
 30
0.0000000000000099
  9
$LIMMIN
 10
0.0
 20
0.0
  9
$LIMMAX
 10
420.0
 20
297.0
  9
$ORTHOMODE
 70
     0
  9
$REGENMODE
 70
     1
  9
$FILLMODE
 70
     1
  9
$QTEXTMODE
 70
     0
  9
$MIRRTEXT
 70
     1
  9
$LTSCALE
 40
12.0
  9
$ATTMODE
 70
     1
  9
$TEXTSIZE
 40
10.0
  9
$TRACEWID
 40
0.3
  9
$TEXTSTYLE
  7
0
  9
$CLAYER
  8
SC
  9
$CELTYPE
  6
ByLayer
  9
$CECOLOR
 62
   256
  9
$CELTSCALE
 40
1.0
  9
$DISPSILH
 70
     0
  9
$DIMSCALE
 40
1.0
  9
$DIMASZ
 40
2.0
  9
$DIMEXO
 40
0.0625
  9
$DIMDLI
 40
0.38
  9
$DIMRND
 40
0.0
  9
$DIMDLE
 40
0.0
  9
$DIMEXE
 40
0.18
  9
$DIMTP
 40
0.0
  9
$DIMTM
 40
0.0
  9
$DIMTXT
 40
2.0
  9
$DIMCEN
 40
0.09
  9
$DIMTSZ
 40
0.0
  9
$DIMTOL
 70
     0
  9
$DIMLIM
 70
     0
  9
$DIMTIH
 70
     1
  9
$DIMTOH
 70
     1
  9
$DIMSE1
 70
     0
  9
$DIMSE2
 70
     0
  9
$DIMTAD
 70
     0
  9
$DIMZIN
 70
     0
  9
$DIMBLK
  1

  9
$DIMASO
 70
     1
  9
$DIMSHO
 70
     0
  9
$DIMPOST
  1

  9
$DIMAPOST
  1

  9
$DIMALT
 70
     0
  9
$DIMALTD
 70
     2
  9
$DIMALTF
 40
25.4
  9
$DIMLFAC
 40
1.0
  9
$DIMTOFL
 70
     0
  9
$DIMTVP
 40
0.0
  9
$DIMTIX
 70
     0
  9
$DIMSOXD
 70
     0
  9
$DIMSAH
 70
     0
  9
$DIMBLK1
  1

  9
$DIMBLK2
  1

  9
$DIMSTYLE
  2
Standard
  9
$DIMCLRD
 70
     0
  9
$DIMCLRE
 70
     0
  9
$DIMCLRT
 70
     0
  9
$DIMTFAC
 40
1.0
  9
$DIMGAP
 40
0.09
  9
$DIMJUST
 70
     0
  9
$DIMSD1
 70
     0
  9
$DIMSD2
 70
     0
  9
$DIMTOLJ
 70
     1
  9
$DIMTZIN
 70
     0
  9
$DIMALTZ
 70
     0
  9
$DIMALTTZ
 70
     0
  9
$DIMUPT
 70
     0
  9
$DIMDEC
 70
     4
  9
$DIMTDEC
 70
     4
  9
$DIMALTU
 70
     2
  9
$DIMALTTD
 70
     2
  9
$DIMTXSTY
  7
STANDARD
  9
$DIMAUNIT
 70
     0
  9
$DIMADEC
 70
     0
  9
$DIMALTRND
 40
0.0
  9
$DIMAZIN
 70
     0
  9
$DIMDSEP
 70
    46
  9
$DIMATFIT
 70
     3
  9
$DIMFRAC
 70
     0
  9
$DIMLDRBLK
  1

  9
$DIMLUNIT
 70
     2
  9
$DIMLWD
 70
    -2
  9
$DIMLWE
 70
    -2
  9
$DIMTMOVE
 70
     0
  9
$LUNITS
 70
     2
  9
$LUPREC
 70
     4
  9
$SKETCHINC
 40
0.1
  9
$FILLETRAD
 40
0.0
  9
$AUNITS
 70
     0
  9
$AUPREC
 70
     1
  9
$MENU
  1
ACAD
  9
$ELEVATION
 40
0.0
  9
$PELEVATION
 40
0.0
  9
$THICKNESS
 40
0.0
  9
$LIMCHECK
 70
     0
  9
$CHAMFERA
 40
0.0
  9
$CHAMFERB
 40
0.0
  9
$CHAMFERC
 40
0.0
  9
$CHAMFERD
 40
0.0
  9
$SKPOLY
 70
     0
  9
$TDCREATE
 40
2450808.702418171
  9
$TDUCREATE
 40
2450808.327418172
  9
$TDUPDATE
 40
2456199.678794850
  9
$TDUUPDATE
 40
2456199.303794850
  9
$TDINDWG
 40
1.7013210301
  9
$TDUSRTIMER
 40
1.7013210301
  9
$USRTIMER
 70
     1
  9
$ANGBASE
 50
0.0
  9
$ANGDIR
 70
     0
  9
$PDMODE
 70
     0
  9
$PDSIZE
 40
0.0
  9
$PLINEWID
 40
1.0
  9
$SPLFRAME
 70
     0
  9
$SPLINETYPE
 70
     6
  9
$SPLINESEGS
 70
     8
  9
$HANDSEED
  5
1C53
  9
$SURFTAB1
 70
     6
  9
$SURFTAB2
 70
     6
  9
$SURFTYPE
 70
     6
  9
$SURFU
 70
     6
  9
$SURFV
 70
     6
  9
$UCSBASE
  2

  9
$UCSNAME
  2

  9
$UCSORG
 10
0.0
 20
0.0
 30
0.0
  9
$UCSXDIR
 10
1.0
 20
0.0
 30
0.0
  9
$UCSYDIR
 10
0.0
 20
1.0
 30
0.0
  9
$UCSORTHOREF
  2

  9
$UCSORTHOVIEW
 70
     0
  9
$UCSORGTOP
 10
0.0
 20
0.0
 30
0.0
  9
$UCSORGBOTTOM
 10
0.0
 20
0.0
 30
0.0
  9
$UCSORGLEFT
 10
0.0
 20
0.0
 30
0.0
  9
$UCSORGRIGHT
 10
0.0
 20
0.0
 30
0.0
  9
$UCSORGFRONT
 10
0.0
 20
0.0
 30
0.0
  9
$UCSORGBACK
 10
0.0
 20
0.0
 30
0.0
  9
$PUCSBASE
  2

  9
$PUCSNAME
  2

  9
$PUCSORG
 10
0.0
 20
0.0
 30
0.0
  9
$PUCSXDIR
 10
1.0
 20
0.0
 30
0.0
  9
$PUCSYDIR
 10
0.0
 20
1.0
 30
0.0
  9
$PUCSORTHOREF
  2

  9
$PUCSORTHOVIEW
 70
     0
  9
$PUCSORGTOP
 10
0.0
 20
0.0
 30
0.0
  9
$PUCSORGBOTTOM
 10
0.0
 20
0.0
 30
0.0
  9
$PUCSORGLEFT
 10
0.0
 20
0.0
 30
0.0
  9
$PUCSORGRIGHT
 10
0.0
 20
0.0
 30
0.0
  9
$PUCSORGFRONT
 10
0.0
 20
0.0
 30
0.0
  9
$PUCSORGBACK
 10
0.0
 20
0.0
 30
0.0
  9
$USERI1
 70
     0
  9
$USERI2
 70
     0
  9
$USERI3
 70
     0
  9
$USERI4
 70
     0
  9
$USERI5
 70
     0
  9
$USERR1
 40
0.0
  9
$USERR2
 40
0.0
  9
$USERR3
 40
0.0
  9
$USERR4
 40
0.0
  9
$USERR5
 40
0.0
  9
$WORLDVIEW
 70
     1
  9
$SHADEDGE
 70
     3
  9
$SHADEDIF
 70
    70
  9
$TILEMODE
 70
     1
  9
$MAXACTVP
 70
    16
  9
$PINSBASE
 10
0.0
 20
0.0
 30
0.0
  9
$PLIMCHECK
 70
     0
  9
$PEXTMIN
 10
1.000000000000000E+20
 20
1.000000000000000E+20
 30
1.000000000000000E+20
  9
$PEXTMAX
 10
-1.000000000000000E+20
 20
-1.000000000000000E+20
 30
-1.000000000000000E+20
  9
$PLIMMIN
 10
0.0
 20
0.0
  9
$PLIMMAX
 10
12.0
 20
9.0
  9
$UNITMODE
 70
     0
  9
$VISRETAIN
 70
     0
  9
$PLINEGEN
 70
     0
  9
$PSLTSCALE
 70
     0
  9
$TREEDEPTH
 70
  3020
  9
$CMLSTYLE
  2
Standard
  9
$CMLJUST
 70
     0
  9
$CMLSCALE
 40
1.0
  9
$PROXYGRAPHICS
 70
     1
  9
$MEASUREMENT
 70
     0
  9
$CELWEIGHT
370
    -1
  9
$ENDCAPS
280
     0
  9
$JOINSTYLE
280
     0
  9
$LWDISPLAY
290
     0
  9
$INSUNITS
 70
     0
  9
$HYPERLINKBASE
  1

  9
$STYLESHEET
  1
monochrome.ctb
  9
$XEDIT
290
     1
  9
$CEPSNTYPE
380
     0
  9
$PSTYLEMODE
290
     1
  9
$FINGERPRINTGUID
  2
{51BC8342-4694-11D4-A1F9-0060672295C7}
  9
$VERSIONGUID
  2
{5C63B150-2C7E-43D3-97BC-26DD952AEFAB}
  9
$EXTNAMES
290
     1
  9
$PSVPSCALE
 40
0.0
  9
$OLESTARTUP
290
     0
  0
ENDSEC
  0
SECTION
  2
CLASSES
  0
CLASS
  1
ACDBDICTIONARYWDFLT
  2
AcDbDictionaryWithDefault
  3
ObjectDBX Classes
 90
        0
280
     0
281
     0
  0
CLASS
  1
ACDBPLACEHOLDER
  2
AcDbPlaceHolder
  3
ObjectDBX Classes
 90
        0
280
     0
281
     0
  0
CLASS
  1
LAYOUT
  2
AcDbLayout
  3
ObjectDBX Classes
 90
        0
280
     0
281
     0
  0
CLASS
  1
TABLESTYLE
  2
AcDbTableStyle
  3
ObjectDBX Classes
 90
     2047
280
     0
281
     0
  0
CLASS
  1
DICTIONARYVAR
  2
AcDbDictionaryVar
  3
ObjectDBX Classes
 90
        0
280
     0
281
     0
  0
ENDSEC
  0
SECTION
  2
TABLES
  0
TABLE
  2
VPORT
  5
8
330
0
100
AcDbSymbolTable
 70
    20
  0
VPORT
  5
1C4B
330
8
100
AcDbSymbolTableRecord
100
AcDbViewportTableRecord
  2
*Active
 70
     0
 10
0.0
 20
0.0
 11
1.0
 21
1.0
 12
210.0
 22
148.5
 13
0.0
 23
0.0
 14
0.001
 24
0.001
 15
10.0
 25
10.0
 16
0.0
 26
0.0
 36
1.0
 17
0.0
 27
0.0
 37
0.0
 40
300.6
 41
2.417004048582995
 42
50.0
 43
0.0
 44
0.0
 50
0.0
 51
0.0
 71
     0
 72
  2000
 73
     1
 74
     0
 75
     1
 76
     1
 77
     0
 78
     2
281
     0
 65
     1
110
0.0
120
0.0
130
0.0
111
1.0
121
0.0
131
0.0
112
0.0
122
1.0
132
0.0
 79
     0
146
0.0
  0
ENDTAB
  0
TABLE
  2
LTYPE
  5
5
330
0
100
AcDbSymbolTable
 70
     4
  0
LTYPE
  5
13
330
5
100
AcDbSymbolTableRecord
100
AcDbLinetypeTableRecord
  2
ByBlock
 70
     0
  3

 72
    65
 73
     0
 40
0.0
  0
LTYPE
  5
14
330
5
100
AcDbSymbolTableRecord
100
AcDbLinetypeTableRecord
  2
ByLayer
 70
     0
  3

 72
    65
 73
     0
 40
0.0
  0
LTYPE
  5
15
330
5
100
AcDbSymbolTableRecord
100
AcDbLinetypeTableRecord
  2
CONTINUOUS
 70
     0
  3
実線
 72
    65
 73
     0
 40
0.0
  0
LTYPE
  5
23
330
5
100
AcDbSymbolTableRecord
100
AcDbLinetypeTableRecord
  2
CENTER
 70
     0
  3
____ _ ____ _ ____ _ ____ _ ____ _ ____ _ ____
 72
    65
 73
     4
 40
2.0
 49
1.25
 74
     0
 49
-0.25
 74
     0
 49
0.25
 74
     0
 49
-0.25
 74
     0
  0
LTYPE
  5
24
330
5
100
AcDbSymbolTableRecord
100
AcDbLinetypeTableRecord
  2
HIDDEN
 70
     0
  3
_ _ _ _ _ _ _ _ _ _ _ _ _ _ _ _ _ _ _ _ _ _ _
 72
    65
 73
     2
 40
0.375
 49
0.25
 74
     0
 49
-0.125
 74
     0
  0
LTYPE
  5
1C0C
330
5
100
AcDbSymbolTableRecord
100
AcDbLinetypeTableRecord
  2
PHANTOM2
 70
     0
  3
Phantom (.5x) ___ _ _ ___ _ _ ___ _ _ ___ _ _
 72
    65
 73
     6
 40
1.25
 49
0.625
 74
     0
 49
-0.125
 74
     0
 49
0.125
 74
     0
 49
-0.125
 74
     0
 49
0.125
 74
     0
 49
-0.125
 74
     0
  0
ENDTAB
  0
TABLE
  2
LAYER
  5
2
330
0
100
AcDbSymbolTable
 70
    10
  0
LAYER
  5
10
330
2
100
AcDbSymbolTableRecord
100
AcDbLayerTableRecord
  2
0
 70
     0
 62
     7
  6
CONTINUOUS
370
    -3
390
F
  0
LAYER
  5
28
330
2
100
AcDbSymbolTableRecord
100
AcDbLayerTableRecord
  2
HO
 70
     0
 62
     2
  6
CENTER
370
    13
390
F
  0
LAYER
  5
29
330
2
100
AcDbSymbolTableRecord
100
AcDbLayerTableRecord
  2
HA
 70
     0
 62
     4
  6
HIDDEN
370
    13
390
F
  0
LAYER
  5
2A
330
2
100
AcDbSymbolTableRecord
100
AcDbLayerTableRecord
  2
SB
 70
     0
 62
     1
  6
CONTINUOUS
370
    20
390
F
  0
LAYER
  5
2B
330
2
100
AcDbSymbolTableRecord
100
AcDbLayerTableRecord
  2
SA
 70
     0
 62
     7
  6
CONTINUOUS
370
    30
390
F
  0
LAYER
  5
2C
330
2
100
AcDbSymbolTableRecord
100
AcDbLayerTableRecord
  2
MO
 70
     0
 62
     3
  6
CONTINUOUS
370
    20
390
F
  0
LAYER
  5
2D
330
2
100
AcDbSymbolTableRecord
100
AcDbLayerTableRecord
  2
SC
 70
     0
 62
     6
  6
CONTINUOUS
370
    13
390
F
  0
LAYER
  5
2E
330
2
100
AcDbSymbolTableRecord
100
AcDbLayerTableRecord
  2
DEFPOINTS
 70
     0
 62
     7
  6
CONTINUOUS
290
     0
370
    -3
390
F
  0
LAYER
  5
1397
330
2
100
AcDbSymbolTableRecord
100
AcDbLayerTableRecord
  2
sd
 70
     0
 62
     1
  6
CONTINUOUS
370
    20
390
F
  0
LAYER
  5
1C0D
330
2
100
AcDbSymbolTableRecord
100
AcDbLayerTableRecord
  2
SZ
 70
     0
 62
     5
  6
PHANTOM2
370
     9
390
F
  0
ENDTAB
  0
TABLE
  2
STYLE
  5
3
330
0
100
AcDbSymbolTable
 70
     3
  0
STYLE
  5
11
330
3
100
AcDbSymbolTableRecord
100
AcDbTextStyleTableRecord
  2
STANDARD
 70
     0
 40
0.0
 41
1.0
 50
0.0
 71
     0
 42
0.2
  3
TXT
  4

  0
STYLE
  5
22
330
3
100
AcDbSymbolTableRecord
100
AcDbTextStyleTableRecord
  2
0
 70
     0
 40
0.0
 41
1.0
 50
0.0
 71
     0
 42
10.0
  3
SIMPLEX
  4
BIGFONT
  0
STYLE
  5
1C0B
330
3
100
AcDbSymbolTableRecord
100
AcDbTextStyleTableRecord
  2

 70
     1
 40
0.0
 41
1.0
 50
0.0
 71
     0
 42
10.0
  3
ltypeshp.shx
  4

  0
ENDTAB
  0
TABLE
  2
VIEW
  5
6
330
0
100
AcDbSymbolTable
 70
     1
  0
VIEW
  5
25
330
6
100
AcDbSymbolTableRecord
100
AcDbViewTableRecord
  2
HYOU
 70
     0
 40
162.519
 10
329.94
 20
84.5855
 41
158.206
 11
0.0
 21
0.0
 31
1.0
 12
0.0
 22
0.0
 32
0.0
 42
0.0
 43
0.0
 44
0.0
 50
0.0
 71
     0
281
     0
 72
     0
  0
ENDTAB
  0
TABLE
  2
UCS
  5
7
330
0
100
AcDbSymbolTable
 70
     0
  0
ENDTAB
  0
TABLE
  2
APPID
  5
9
330
0
100
AcDbSymbolTable
 70
     2
  0
APPID
  5
12
330
9
100
AcDbSymbolTableRecord
100
AcDbRegAppTableRecord
  2
ACAD
 70
     0
  0
APPID
  5
17B3
330
9
100
AcDbSymbolTableRecord
100
AcDbRegAppTableRecord
  2
ACAD_PSEXT
 70
     0
  0
ENDTAB
  0
TABLE
  2
DIMSTYLE
  5
A
330
0
100
AcDbSymbolTable
 70
     1
100
AcDbDimStyleTable
 71
     1
340
3C3
  0
DIMSTYLE
105
3C3
330
A
100
AcDbSymbolTableRecord
100
AcDbDimStyleTableRecord
  2
Standard
 70
     0
 41
2.0
140
2.0
340
11
  0
ENDTAB
  0
TABLE
  2
BLOCK_RECORD
  5
1
330
0
100
AcDbSymbolTable
 70
    13
  0
BLOCK_RECORD
  5
1E
330
1
100
AcDbSymbolTableRecord
100
AcDbBlockTableRecord
  2
*Model_Space
340
21
  0
BLOCK_RECORD
  5
1A
330
1
100
AcDbSymbolTableRecord
100
AcDbBlockTableRecord
  2
*Paper_Space
340
1D
  0
BLOCK_RECORD
  5
1A45
330
1
100
AcDbSymbolTableRecord
100
AcDbBlockTableRecord
  2
*D0
340
0
  0
BLOCK_RECORD
  5
1BA2
330
1
100
AcDbSymbolTableRecord
100
AcDbBlockTableRecord
  2
*D2
340
0
  0
BLOCK_RECORD
  5
1BF1
330
1
100
AcDbSymbolTableRecord
100
AcDbBlockTableRecord
  2
A$C168224A4
340
0
  0
ENDTAB
  0
ENDSEC
  0
SECTION
  2
BLOCKS
  0
BLOCK
  5
31
330
1E
100
AcDbEntity
  8
0
100
AcDbBlockBegin
  2
*Model_Space
 70
     0
 10
0.0
 20
0.0
 30
0.0
  3
*Model_Space
  1

  0
ENDBLK
  5
32
330
1E
100
AcDbEntity
  8
0
100
AcDbBlockEnd
  0
BLOCK
  5
2F
330
1A
100
AcDbEntity
 67
     1
  8
0
100
AcDbBlockBegin
  2
*Paper_Space
 70
     0
 10
0.0
 20
0.0
 30
0.0
  3
*Paper_Space
  1

  0
ENDBLK
  5
30
330
1A
100
AcDbEntity
 67
     1
  8
0
100
AcDbBlockEnd
  0
BLOCK
  5
1A46
330
1A45
100
AcDbEntity
  8
0
100
AcDbBlockBegin
  2
*D0
 70
     1
 10
0.0
 20
0.0
 30
0.0
  3
*D0
  1

  0
LINE
  5
1A47
330
1A45
100
AcDbEntity
  8
SC
 62
     0
370
    -2
100
AcDbLine
 10
158.7361506741406
 20
192.1739077589622
 30
0.0
 11
148.1805714988817
 21
183.2297708459327
 31
0.0
  0
LINE
  5
1A48
330
1A45
100
AcDbEntity
  8
SC
 62
     0
370
    -2
100
AcDbLine
 10
101.0308273229122
 20
143.2780296555836
 30
0.0
 11
97.2924171859826
 21
140.1103349657339
 31
0.0
  0
MTEXT
  5
1A49
330
1A45
100
AcDbEntity
  8
SC
 62
     0
100
AcDbMText
 10
155.0403227720529
 20
192.8269916878335
 30
0.0
 40
4.899999999999999
 41
0.0
 71
     5
 72
     1
  1
\A1;φ
  7
0
 11
0.7629408442713502
 21
0.6464683040509561
 31
0.0
 73
     1
 44
1.0
1001
ACAD
1000
MTEXTBEGIN
1070
    73
1070
     1
1070
    44
1040
1.0
1070
    74
1070
     0
1000
MTEXTEND
  0
LINE
  5
1A4A
330
1A45
100
AcDbEntity
  8
SC
 62
     0
370
    -2
100
AcDbLine
 10
104.7692374598418
 20
146.4457243454333
 30
0.0
 11
144.4421613619521
 21
180.0620761560831
 31
0.0
  0
SOLID
  5
1A4B
330
1A45
100
AcDbEntity
  8
SC
 62
     0
100
AcDbTrace
 10
100.5028782079372
 20
143.9010980117386
 30
0.0
 11
101.5587764378871
 21
142.6549612994287
 31
0.0
 12
104.7692374598418
 22
146.4457243454333
 32
0.0
 13
104.7692374598418
 23
146.4457243454333
 33
0.0
  0
SOLID
  5
1A4C
330
1A45
100
AcDbEntity
  8
SC
 62
     0
100
AcDbTrace
 10
147.6526223839067
 20
183.8528392020877
 30
0.0
 11
148.7085206138566
 21
182.6067024897778
 31
0.0
 12
144.4421613619521
 22
180.0620761560831
 32
0.0
 13
144.4421613619521
 23
180.0620761560831
 33
0.0
  0
POINT
  5
1A4D
330
1A45
100
AcDbEntity
  8
DEFPOINTS
 62
     0
100
AcDbPoint
 10
144.4421613619521
 20
180.0620761560831
 30
0.0
  0
POINT
  5
1A4E
330
1A45
100
AcDbEntity
  8
DEFPOINTS
 62
     0
100
AcDbPoint
 10
104.7692374598418
 20
146.4457243454333
 30
0.0
  0
ENDBLK
  5
1A4F
330
1A45
100
AcDbEntity
  8
0
100
AcDbBlockEnd
  0
BLOCK
  5
1BAB
330
1BA2
100
AcDbEntity
  8
0
100
AcDbBlockBegin
  2
*D2
 70
     1
 10
0.0
 20
0.0
 30
0.0
  3
*D2
  1

  0
LINE
  5
1BB5
330
1BA2
100
AcDbEntity
  8
SC
 62
     0
370
    -2
100
AcDbLine
 10
165.4523005891029
 20
174.2590997492418
 30
0.0
 11
163.4523005891029
 21
174.2590997492418
 31
0.0
  0
LINE
  5
1BB6
330
1BA2
100
AcDbEntity
  8
SC
 62
     0
370
    -2
100
AcDbLine
 10
163.4523005891029
 20
174.2590997492418
 30
0.0
 11
152.5133436395976
 21
164.9901125134267
 31
0.0
  0
MTEXT
  5
1BB7
330
1BA2
100
AcDbEntity
  8
SC
 62
     0
100
AcDbMText
 10
166.3423005891029
 20
174.2590997492418
 30
0.0
 40
2.0
 41
0.0
 71
     5
 72
     1
  1
\A1;φ
  7
0
 73
     1
 44
1.0
1001
ACAD
1000
MTEXTBEGIN
1070
    73
1070
     1
1070
    44
1040
1.0
1070
    74
1070
     0
1000
MTEXTEND
  0
SOLID
  5
1BB8
330
1BA2
100
AcDbEntity
  8
SC
 62
     0
100
AcDbTrace
 10
152.2978542049139
 20
165.2444261281838
 30
0.0
 11
152.7288330742812
 21
164.7357988986696
 31
0.0
 12
150.9874619510549
 22
163.6971759053248
 32
0.0
 13
150.9874619510549
 23
163.6971759053248
 33
0.0
  0
LINE
  5
1BB9
330
1BA2
100
AcDbEntity
  8
SC
 62
     0
370
    -2
100
AcDbLine
 10
131.0609999999998
 20
146.8889999999999
 30
0.0
 11
131.2409999999998
 21
146.8889999999999
 31
0.0
  0
LINE
  5
1BBA
330
1BA2
100
AcDbEntity
  8
SC
 62
     0
370
    -2
100
AcDbLine
 10
131.1509999999998
 20
146.7989999999999
 30
0.0
 11
131.1509999999998
 21
146.9789999999999
 31
0.0
  0
POINT
  5
1BBB
330
1BA2
100
AcDbEntity
  8
DEFPOINTS
 62
     0
100
AcDbPoint
 10
150.9874619510549
 20
163.6971759053248
 30
0.0
  0
POINT
  5
1BBC
330
1BA2
100
AcDbEntity
  8
DEFPOINTS
 62
     0
100
AcDbPoint
 10
111.3145380489446
 20
130.080824094675
 30
0.0
  0
ENDBLK
  5
1BAC
330
1BA2
100
AcDbEntity
  8
0
100
AcDbBlockEnd
  0
BLOCK
  5
1BF7
330
1BF1
100
AcDbEntity
  8
0
100
AcDbBlockBegin
  2
A$C168224A4
 70
     0
 10
0.0
 20
0.0
 30
0.0
  3
A$C168224A4
  1

  0
TEXT
  5
1BF2
330
1BF1
100
AcDbEntity
  8
MO
100
AcDbText
 10
29.06392589340328
 20
15.78399955256054
 30
0.0
 40
3.599999999999999
  1
ヒーターバンド
  7
0
100
AcDbText
  0
TEXT
  5
1BF3
330
1BF1
100
AcDbEntity
  8
MO
100
AcDbText
 10
16.98844636234099
 20
21.7352072125702
 30
0.0
 40
3.599999999999999
  1
ヒーター（C）
  7
0
100
AcDbText
  0
LINE
  5
1BF4
330
1BF1
100
AcDbEntity
  8
SC
100
AcDbLine
 10
14.63431328166325
 20
20.85448773706838
 30
0.0
 11
59.28792531728698
 21
20.85448773706838
 31
0.0
  0
LINE
  5
1BF5
330
1BF1
100
AcDbEntity
  8
SC
100
AcDbLine
 10
0.3999994263709823
 20
0.3999998947063545
 30
0.0
 11
14.63431328166325
 21
20.85448773706838
 31
0.0
  0
CIRCLE
  5
1BF6
330
1BF1
100
AcDbEntity
  8
SC
100
AcDbCircle
 10
0.3999994263709823
 20
0.3999998947063545
 30
0.0
 40
0.4
  0
ENDBLK
  5
1BF8
330
1BF1
100
AcDbEntity
  8
0
100
AcDbBlockEnd
  0
ENDSEC
  0
SECTION
  2
ENTITIES
  0
TEXT
  5
61
330
1E
100
AcDbEntity
  8
MO
100
AcDbText
 10
328.5
 20
53.5
 30
0.0
 40
4.0
  1

  7
0
 72
     1
 11
328.5
 21
53.5
 31
0.0
100
AcDbText
  0
TEXT
  5
62
330
1E
100
AcDbEntity
  8
MO
100
AcDbText
 10
328.5
 20
47.0
 30
0.0
 40
4.0
  1

  7
0
 72
     1
 11
328.5
 21
47.0
 31
0.0
100
AcDbText
  0
TEXT
  5
63
330
1E
100
AcDbEntity
  8
MO
100
AcDbText
 10
328.5
 20
34.0
 30
0.0
 40
4.0
  1

  7
0
 72
     1
 11
328.5
 21
34.0
 31
0.0
100
AcDbText
  0
TEXT
  5
6E
330
1E
100
AcDbEntity
  8
MO
100
AcDbText
 10
328.204
 20
39.802
 30
0.0
 40
4.0
  1

  7
0
 72
     1
 11
328.204
 21
39.802
 31
0.0
100
AcDbText
  0
TEXT
  5
89
330
1E
100
AcDbEntity
  8
MO
100
AcDbText
 10
82.20200000000009
 20
51.07199999999998
 30
0.0
 40
3.0
  1

  7
0
100
AcDbText
  0
TEXT
  5
8B
330
1E
100
AcDbEntity
  8
MO
100
AcDbText
 10
110.859
 20
51.07199999999998
 30
0.0
 40
3.0
  1

  7
0
100
AcDbText
  0
TEXT
  5
8D
330
1E
100
AcDbEntity
  8
MO
100
AcDbText
 10
360.261
 20
19.91099999999999
 30
0.0
 40
7.0
  1

  7
0
 72
     4
 11
360.261
 21
19.91099999999999
 31
0.0
100
AcDbText
  0
TEXT
  5
91
330
1E
100
AcDbEntity
  8
MO
370
    40
100
AcDbText
 10
216.5733260705749
 20
246.8484085017089
 30
0.0
 40
10.8
  1
ノズル型バンドヒーター
  7
0
100
AcDbText
  0
TEXT
  5
AC
330
1E
100
AcDbEntity
  8
MO
100
AcDbText
 10
103.1910000000001
 20
51.07199999999996
 30
0.0
 40
3.0
  1

  7
0
100
AcDbText
  0
TEXT
  5
1399
330
1E
100
AcDbEntity
  8
MO
100
AcDbText
 10
75.70200000000008
 20
51.07199999999998
 30
0.0
 40
3.0
  1

  7
0
100
AcDbText
  0
TEXT
  5
139C
330
1E
100
AcDbEntity
  8
MO
100
AcDbText
 10
110.859
 20
63.07199999999996
 30
0.0
 40
3.0
  1

  7
0
100
AcDbText
  0
TEXT
  5
139F
330
1E
100
AcDbEntity
  8
SC
100
AcDbText
 10
135.033
 20
64.98099999999995
 30
0.0
 40
2.0
  1

  7
0
100
AcDbText
  0
TEXT
  5
13A0
330
1E
100
AcDbEntity
  8
MO
100
AcDbText
 10
110.859
 20
45.07200000000001
 30
0.0
 40
3.0
  1

  7
0
100
AcDbText
  0
TEXT
  5
148E
330
1E
100
AcDbEntity
  8
MO
100
AcDbText
 10
355.9181320877766
 20
10.917
 30
0.0
 40
5.0
  1
株）
  7
0
 72
     1
 11
359.9181320877766
 21
10.917
 31
0.0
100
AcDbText
  0
TEXT
  5
1491
330
1E
100
AcDbEntity
  8
SC
100
AcDbText
 10
103.7564
 20
117.6597333333333
 30
0.0
 40
0.25
  1

100
AcDbText
  0
TEXT
  5
1492
330
1E
100
AcDbEntity
  8
MO
100
AcDbText
 10
367.191
 20
10.917
 30
0.0
 40
6.0
  1
愛西電熱
  7
0
 72
     1
 11
380.7910000000001
 21
10.917
 31
0.0
100
AcDbText
  0
MTEXT
  5
1758
330
1E
100
AcDbEntity
  8
SC
100
AcDbMText
 10
317.637
 20
21.871
 30
0.0
 40
2.5
 41
0.0
 71
     1
 72
     5
  1

  7
0
 73
     1
 44
1.0
1001
ACAD
1000
MTEXTBEGIN
1070
    73
1070
     1
1070
    44
1040
1.0
1070
    74
1070
     0
1000
MTEXTEND
  0
MTEXT
  5
178F
330
1E
100
AcDbEntity
  8
SC
100
AcDbMText
 10
220.1774508739589
 20
61.30926792682226
 30
0.0
 40
5.0
 41
0.0
 71
     1
 72
     5
  1
加工穴、その他変更部がありましたら図面に書き込んで御利用下さい
  7
0
 73
     1
 44
1.0
1001
ACAD
1000
MTEXTBEGIN
1070
    73
1070
     1
1070
    44
1040
1.0
1070
    74
1070
     0
1000
MTEXTEND
  0
LINE
  5
17DC
330
1E
100
AcDbEntity
  8
0
100
AcDbLine
 10
14.99999999999995
 20
30.70499999999999
 30
0.0
 11
14.99999999999995
 21
50.70499999999999
 31
0.0
  0
LINE
  5
17DE
330
1E
100
AcDbEntity
  8
0
100
AcDbLine
 10
24.99999999999994
 20
50.70499999999999
 30
0.0
 11
24.99999999999994
 21
30.705
 31
0.0
  0
LINE
  5
1806
330
1E
100
AcDbEntity
  8
0
100
AcDbLine
 10
14.99999999999995
 20
50.70499999999999
 30
0.0
 11
49.99999999999994
 21
50.70499999999999
 31
0.0
  0
LINE
  5
1807
330
1E
100
AcDbEntity
  8
0
100
AcDbLine
 10
14.99999999999995
 20
40.70499999999999
 30
0.0
 11
49.99999999999994
 21
40.70499999999999
 31
0.0
  0
LINE
  5
1808
330
1E
100
AcDbEntity
  8
0
100
AcDbLine
 10
14.99999999999995
 20
30.70499999999999
 30
0.0
 11
49.99999999999994
 21
30.70499999999999
 31
0.0
  0
LINE
  5
180A
330
1E
100
AcDbEntity
  8
0
100
AcDbLine
 10
159.9999999999999
 20
50.70499999999999
 30
0.0
 11
281.0
 21
50.70499999999999
 31
0.0
  0
TEXT
  5
1814
330
1E
100
AcDbEntity
  8
MO
100
AcDbText
 10
19.18000058282744
 20
43.87999982484505
 30
0.0
 40
3.499999999999999
  1
A
  7
0
100
AcDbText
  0
TEXT
  5
181A
330
1E
100
AcDbEntity
  8
MO
100
AcDbText
 10
91.28012879570206
 20
43.7553613470516
 30
0.0
 40
3.499999999999999
  1
B
  7
0
100
AcDbText
  0
TEXT
  5
1822
330
1E
100
AcDbEntity
  8
MO
100
AcDbText
 10
32.9032818353157
 20
43.07893657328403
 30
0.0
 40
4.375
  1
内径
  7
0
 72
     1
 11
37.7157818353157
 21
43.07893657328403
 31
0.0
100
AcDbText
  0
TEXT
  5
1829
330
1E
100
AcDbEntity
  8
MO
100
AcDbText
 10
107.5739879080579
 20
43.61824969380626
 30
0.0
 40
4.375
  1
巾
  7
0
 72
     1
 11
109.6156545747246
 21
43.61824969380626
 31
0.0
100
AcDbText
  0
TEXT
  5
1844
330
1E
100
AcDbEntity
  8
MO
100
AcDbText
 10
18.85312879570205
 20
33.67336134705161
 30
0.0
 40
3.499999999999999
  1
C
  7
0
100
AcDbText
  0
TEXT
  5
1845
330
1E
100
AcDbEntity
  8
MO
100
AcDbText
 10
32.25766860327968
 20
33.50686474409736
 30
0.0
 40
4.375
  1
材質
  7
0
 72
     1
 11
36.92433526994634
 21
33.50686474409736
 31
0.0
100
AcDbText
  0
LINE
  5
1847
330
1E
100
AcDbEntity
  8
0
100
AcDbLine
 10
49.99999999999994
 20
50.70499999999999
 30
0.0
 11
49.99999999999994
 21
30.70499999999999
 31
0.0
  0
TEXT
  5
1855
330
1E
100
AcDbEntity
  8
MO
100
AcDbText
 10
91.35312879570202
 20
33.6733613470516
 30
0.0
 40
3.499999999999999
  1
D
  7
0
100
AcDbText
  0
TEXT
  5
1856
330
1E
100
AcDbEntity
  8
MO
100
AcDbText
 10
226.088412769654
 20
33.66682550160349
 30
0.0
 40
4.375
  1
数量
  7
0
 72
     1
 11
230.7550794363206
 21
33.66682550160349
 31
0.0
100
AcDbText
  0
LINE
  5
1870
330
1E
100
AcDbEntity
  8
0
100
AcDbLine
 10
14.99999999999994
 20
30.705
 30
0.0
 11
159.9999999999999
 21
30.70499999999999
 31
0.0
  0
LINE
  5
1871
330
1E
100
AcDbEntity
  8
0
100
AcDbLine
 10
87.49999999999992
 20
50.70499999999999
 30
0.0
 11
87.49999999999992
 21
30.70499999999999
 31
0.0
  0
LINE
  5
1873
330
1E
100
AcDbEntity
  8
0
100
AcDbLine
 10
49.99999999999994
 20
50.70499999999999
 30
0.0
 11
159.9999999999999
 21
50.70499999999999
 31
0.0
  0
LINE
  5
1874
330
1E
100
AcDbEntity
  8
0
100
AcDbLine
 10
49.99999999999994
 20
40.70499999999999
 30
0.0
 11
87.49999999999992
 21
40.70499999999999
 31
0.0
  0
LINE
  5
1875
330
1E
100
AcDbEntity
  8
0
100
AcDbLine
 10
49.99999999999994
 20
30.70499999999999
 30
0.0
 11
159.9999999999999
 21
30.70499999999999
 31
0.0
  0
LINE
  5
1884
330
1E
100
AcDbEntity
  8
0
100
AcDbLine
 10
122.4999999999999
 20
40.705
 30
0.0
 11
159.9999999999999
 21
40.705
 31
0.0
  0
LINE
  5
1888
330
1E
100
AcDbEntity
  8
0
100
AcDbLine
 10
14.99999999999994
 20
30.705
 30
0.0
 11
159.9999999999999
 21
30.70499999999999
 31
0.0
  0
LINE
  5
1889
330
1E
100
AcDbEntity
  8
0
100
AcDbLine
 10
17.99999999999994
 20
20.705
 30
0.0
 11
283.2259999999999
 21
20.70499999999999
 31
0.0
  0
LINE
  5
188A
330
1E
100
AcDbEntity
  8
0
100
AcDbLine
 10
17.99999999999994
 20
10.705
 30
0.0
 11
283.2259999999999
 21
10.70499999999998
 31
0.0
  0
TEXT
  5
1892
330
1E
100
AcDbEntity
  8
MO
100
AcDbText
 10
18.0825030365616
 20
28.37468907764135
 30
0.0
 40
2.799999999999999
  1

  7
0
100
AcDbText
  0
TEXT
  5
1893
330
1E
100
AcDbEntity
  8
MO
100
AcDbText
 10
18.31122710757998
 20
21.78303665633006
 30
0.0
 40
3.5
  1
その他詳細：
  7
0
 72
     1
 11
29.86122710757998
 21
21.78303665633006
 31
0.0
100
AcDbText
  0
LINE
  5
18A2
330
1E
100
AcDbEntity
  8
0
100
AcDbLine
 10
87.49999999999992
 20
40.70499999999999
 30
0.0
 11
159.9999999999999
 21
40.70499999999999
 31
0.0
  0
TEXT
  5
18A3
330
1E
100
AcDbEntity
  8
MO
100
AcDbText
 10
226.322471877816
 20
43.55161148403567
 30
0.0
 40
4.375
  1
容量
  7
0
 72
     1
 11
230.9891385444827
 21
43.55161148403567
 31
0.0
100
AcDbText
  0
TEXT
  5
18A5
330
1E
100
AcDbEntity
  8
MO
100
AcDbText
 10
166.1966333931626
 20
43.47752605931685
 30
0.0
 40
4.375
  1
電圧
  7
0
 72
     1
 11
170.8633000598292
 21
43.47752605931685
 31
0.0
100
AcDbText
  0
LINE
  5
18A9
330
1E
100
AcDbEntity
  8
0
100
AcDbLine
 10
159.9999999999999
 20
50.70499999999999
 30
0.0
 11
159.9999999999999
 21
30.70499999999999
 31
0.0
  0
LINE
  5
18AA
330
1E
100
AcDbEntity
  8
0
100
AcDbLine
 10
97.49999999999994
 20
50.70499999999999
 30
0.0
 11
97.49999999999994
 21
30.70499999999999
 31
0.0
  0
LINE
  5
18AB
330
1E
100
AcDbEntity
  8
0
100
AcDbLine
 10
122.4999999999999
 20
50.70499999999999
 30
0.0
 11
122.4999999999999
 21
30.70499999999999
 31
0.0
  0
TEXT
  5
18B4
330
1E
100
AcDbEntity
  8
MO
100
AcDbText
 10
334.7498393399925
 20
3.380574230302642
 30
0.0
 40
3.5
  1
AISEI  DENNETSU CO., LTD
  7
0
100
AcDbText
  0
TEXT
  5
18BD
330
1E
100
AcDbEntity
  8
MO
100
AcDbText
 10
398.0943211714158
 20
11.06163477656134
 30
0.0
 40
5.0
  1
行
  7
0
 72
     1
 11
400.4276545047491
 21
11.06163477656134
 31
0.0
100
AcDbText
  0
TEXT
  5
18C6
330
1E
100
AcDbEntity
  8
MO
100
AcDbText
 10
80.18549947051658
 20
43.19699993280605
 30
0.0
 40
4.375
  1
φ
  7
0
 72
     1
 11
82.37299947051658
 21
43.19699993280605
 31
0.0
100
AcDbText
  0
TEXT
  5
18CC
330
1E
100
AcDbEntity
  8
MO
100
AcDbText
 10
150.7363375097419
 20
42.75375974362895
 30
0.0
 40
3.0625
  1
mm
  7
0
 72
     1
 11
154.5280041764086
 21
42.75375974362895
 31
0.0
100
AcDbText
  0
TEXT
  5
18D2
330
1E
100
AcDbEntity
  8
MO
100
AcDbText
 10
212.9983333333334
 20
42.769
 30
0.0
 40
4.375
  1
V
  7
0
 72
     1
 11
214.665
 21
42.769
 31
0.0
100
AcDbText
  0
TEXT
  5
18D8
330
1E
100
AcDbEntity
  8
MO
100
AcDbText
 10
273.9431655087571
 20
43.26163213625631
 30
0.0
 40
4.375
  1
W
  7
0
 72
     1
 11
276.0264988420904
 21
43.26163213625631
 31
0.0
100
AcDbText
  0
TEXT
  5
18DE
330
1E
100
AcDbEntity
  8
MO
100
AcDbText
 10
269.9618249953228
 20
32.63244616812445
 30
0.0
 40
4.375
  1
set
  7
0
 72
     1
 11
274.4409916619895
 21
32.63244616812445
 31
0.0
100
AcDbText
  0
TEXT
  5
18E4
330
1E
100
AcDbEntity
  8
MO
100
AcDbText
 10
53.7897995764133
 20
33.91959994624484
 30
0.0
 40
3.5
  1
SUS・ボンデ鋼鈑
  7
0
 72
     1
 11
68.9897995764133
 21
33.91959994624484
 31
0.0
100
AcDbText
  0
TEXT
  5
18EB
330
1E
100
AcDbEntity
  8
MO
100
AcDbText
 10
17.62914196000259
 20
55.01909017515878
 30
0.0
 40
4.550000000000001
  1
※　下記空欄に記入し、FAXしてください
  7
0
100
AcDbText
  0
LINE
  5
18ED
330
1E
100
AcDbEntity
  8
0
100
AcDbLine
 10
3.193615971125439
 20
267.713
 30
0.0
 11
128.2526159711254
 21
267.713
 31
0.0
  0
LINE
  5
18EE
330
1E
100
AcDbEntity
  8
0
100
AcDbLine
 10
3.193615971125439
 20
255.713
 30
0.0
 11
128.2526159711254
 21
255.7129999999999
 31
0.0
  0
LINE
  5
18EF
330
1E
100
AcDbEntity
  8
0
100
AcDbLine
 10
3.193615971125424
 20
243.713
 30
0.0
 11
128.2526159711254
 21
243.7129999999999
 31
0.0
  0
LINE
  5
18F0
330
1E
100
AcDbEntity
  8
0
100
AcDbLine
 10
3.193615971125424
 20
231.713
 30
0.0
 11
128.2526159711254
 21
231.7129999999999
 31
0.0
  0
TEXT
  5
18F7
330
1E
100
AcDbEntity
  8
MO
100
AcDbText
 10
5.047000000000002
 20
269.7195108252091
 30
0.0
 40
4.375
  1
貴社名：
  7
0
 72
     1
 11
14.08866666666667
 21
269.7195108252091
 31
0.0
100
AcDbText
  0
TEXT
  5
18FF
330
1E
100
AcDbEntity
  8
MO
100
AcDbText
 10
4.762445293775542
 20
259.6404968976157
 30
0.0
 40
4.375
  1
部署・担当者名：
  7
0
 72
     1
 11
24.30411196044222
 21
259.6404968976157
 31
0.0
100
AcDbText
  0
TEXT
  5
190B
330
1E
100
AcDbEntity
  8
MO
100
AcDbText
 10
4.244409610399635
 20
235.1743512486338
 30
0.0
 40
4.375
  1
御連絡先 FAX：
  7
0
 72
     1
 11
23.4735762770663
 21
235.1743512486338
 31
0.0
100
AcDbText
  0
TEXT
  5
1918
330
1E
100
AcDbEntity
  8
MO
100
AcDbText
 10
4.271947869785471
 20
247.7453335828736
 30
0.0
 40
4.375
  1
御連絡先 TEL：
  7
0
 72
     1
 11
22.87611453645213
 21
247.7453335828736
 31
0.0
100
AcDbText
  0
LINE
  5
1923
330
1E
100
AcDbEntity
  8
0
370
    40
100
AcDbLine
 10
315.0881625155811
 20
37.35735115744029
 30
0.0
 11
393.0881625155811
 21
37.35735115744029
 31
0.0
  0
LINE
  5
1924
330
1E
100
AcDbEntity
  8
0
370
    40
100
AcDbLine
 10
315.0881625155811
 20
34.7573511574403
 30
0.0
 11
399.5881625155811
 21
34.7573511574403
 31
0.0
  0
LINE
  5
1925
330
1E
100
AcDbEntity
  8
0
370
    40
100
AcDbLine
 10
393.0881625155811
 20
37.35735115744029
 30
0.0
 11
393.0881625155811
 21
39.95735115744029
 31
0.0
  0
LINE
  5
1926
330
1E
100
AcDbEntity
  8
0
370
    40
100
AcDbLine
 10
393.0881625155811
 20
39.95735115744029
 30
0.0
 11
399.5881625155811
 21
34.7573511574403
 31
0.0
  0
LINE
  5
1927
330
1E
100
AcDbEntity
  8
0
370
    40
100
AcDbLine
 10
315.0881625155811
 20
37.35735115744029
 30
0.0
 11
315.0881625155811
 21
34.7573511574403
 31
0.0
  0
TEXT
  5
192E
330
1E
100
AcDbEntity
  8
MO
370
    40
100
AcDbText
 10
324.6798300677355
 20
38.84484239326316
 30
0.0
 40
7.800000000000001
  1
FAX送信方向
  7
0
 72
     1
 11
353.2426872105926
 21
38.84484239326316
 31
0.0
100
AcDbText
  0
TEXT
  5
1943
330
1E
100
AcDbEntity
  8
0
370
    53
100
AcDbText
 10
86.07465571428523
 20
284.1842971226886
 30
0.0
 40
10.0
  1
愛西電熱　見積依頼書・注文書　フォーム
  7
0
100
AcDbText
  0
TEXT
  5
195E
330
1E
100
AcDbEntity
  8
MO
370
    40
100
AcDbText
 10
313.1463329590498
 20
24.83965109775832
 30
0.0
 40
7.800000000000001
  1
0568-25-2241
  7
0
 72
     1
 11
357.1606186733355
 21
24.83965109775832
 31
0.0
100
AcDbText
  0
TEXT
  5
196C
330
1E
100
AcDbEntity
  8
MO
100
AcDbText
 10
169.2463500699586
 20
84.0619145832329
 30
0.0
 40
3.599999999999999
  1
キャップボルト
  7
0
100
AcDbText
  0
LINE
  5
19C2
330
1E
100
AcDbEntity
  8
SC
370
    40
100
AcDbLine
 10
214.363
 20
245.664
 30
0.0
 11
363.562
 21
245.664
 31
0.0
  0
LINE
  5
19F9
330
1E
100
AcDbEntity
  8
0
100
AcDbLine
 10
160.9999999999999
 20
50.70499999999999
 30
0.0
 11
160.9999999999999
 21
30.70499999999999
 31
0.0
  0
LINE
  5
1A00
330
1E
100
AcDbEntity
  8
0
100
AcDbLine
 10
159.9999999999999
 20
40.705
 30
0.0
 11
280.9999999999999
 21
40.70499999999983
 31
0.0
  0
LINE
  5
1A06
330
1E
100
AcDbEntity
  8
0
100
AcDbLine
 10
159.9999999999999
 20
30.70499999999999
 30
0.0
 11
280.9999999999999
 21
30.70499999999997
 31
0.0
  0
LINE
  5
1A08
330
1E
100
AcDbEntity
  8
0
100
AcDbLine
 10
180.9999999999999
 20
50.70499999999999
 30
0.0
 11
180.9999999999999
 21
30.70499999999999
 31
0.0
  0
LINE
  5
1A09
330
1E
100
AcDbEntity
  8
0
100
AcDbLine
 10
220.9999999999999
 20
50.70499999999999
 30
0.0
 11
220.9999999999999
 21
30.70499999999998
 31
0.0
  0
LINE
  5
1A12
330
1E
100
AcDbEntity
  8
0
100
AcDbLine
 10
281.0
 20
50.70499999999999
 30
0.0
 11
280.9999999999999
 21
30.70499999999997
 31
0.0
  0
LINE
  5
1A13
330
1E
100
AcDbEntity
  8
0
100
AcDbLine
 10
241.0
 20
50.70499999999999
 30
0.0
 11
241.0
 21
30.70499999999999
 31
0.0
  0
LINE
  5
1A14
330
1E
100
AcDbEntity
  8
0
100
AcDbLine
 10
220.9999999999999
 20
50.70499999999999
 30
0.0
 11
220.9999999999999
 21
30.70499999999999
 31
0.0
  0
LEADER
  5
1AFB
330
1E
100
AcDbEntity
  8
SC
100
AcDbLeader
  3
Standard
 76
     3
 10
319.1153005891028
 20
180.7900997492417
 30
0.0
 10
330.3123005891028
 20
205.3940997492418
 30
0.0
 10
361.0803005891029
 20
205.3940997492418
 30
0.0
1001
ACAD
1000
DSTYLE
1002
{
1070
   147
1040
0.625
1070
    77
1070
     0
1002
}
  0
SOLID
  5
1B0D
330
1E
100
AcDbEntity
  8
SC
100
AcDbTrace
 10
381.1082
 20
190.5177664159084
 30
0.0
 11
381.1082
 21
188.8844330825751
 31
0.0
 12
386.0082000000001
 22
189.7010997492417
 32
0.0
 13
386.0082000000001
 23
189.7010997492417
 33
0.0
  0
SOLID
  5
1B0E
330
1E
100
AcDbEntity
  8
SC
100
AcDbTrace
 10
276.1727999999999
 20
190.5177664159084
 30
0.0
 11
276.1727999999999
 21
188.8844330825751
 31
0.0
 12
271.2728000000001
 22
189.7010997492417
 32
0.0
 13
271.2728000000001
 23
189.7010997492417
 33
0.0
  0
LINE
  5
1B0F
330
1E
100
AcDbEntity
  8
SC
100
AcDbLine
 10
276.1727999999999
 20
189.7010997492417
 30
0.0
 11
381.1082
 21
189.7010997492417
 31
0.0
  0
LINE
  5
1B10
330
1E
100
AcDbEntity
  8
SC
100
AcDbLine
 10
386.0082000000001
 20
180.2620351268798
 30
0.0
 11
386.0082000000001
 21
190.5760997492417
 31
0.0
  0
LINE
  5
1B11
330
1E
100
AcDbEntity
  8
SC
100
AcDbLine
 10
271.2728000000001
 20
180.2620351268798
 30
0.0
 11
271.2728000000001
 21
190.5760997492417
 31
0.0
  0
ARC
  5
1B1B
330
1E
100
AcDbEntity
  8
SA
100
AcDbCircle
 10
125.6027568403581
 20
177.9155283493542
 30
0.0
 40
4.713777438596341
100
AcDbArc
 50
280.9196664909077
 51
345.9741509042665
  0
ARC
  5
1B1C
330
1E
100
AcDbEntity
  8
SA
100
AcDbCircle
 10
125.9191678893485
 20
177.0250814258394
 30
0.0
 40
1.653219032391396
100
AcDbArc
 50
277.2011302193838
 51
343.8837069286734
  0
ARC
  5
1B1D
330
1E
100
AcDbEntity
  8
SA
100
AcDbCircle
 10
136.3828321106516
 20
177.0250814258394
 30
0.0
 40
1.653219032391396
100
AcDbArc
 50
196.1162930713267
 51
262.7988697806162
  0
ARC
  5
1B1E
330
1E
100
AcDbEntity
  8
SA
100
AcDbCircle
 10
136.699243159642
 20
177.9155283493542
 30
0.0
 40
4.713777438596341
100
AcDbArc
 50
194.0258490957334
 51
259.0803335090923
  0
LINE
  5
1B20
330
1E
100
AcDbEntity
  8
SA
100
AcDbLine
 10
297.2728000000001
 20
177.8289999999999
 30
0.0
 11
297.2728000000001
 21
106.8432493348357
 31
0.0
  0
LWPOLYLINE
  5
1B21
330
1E
100
AcDbEntity
  8
SC
100
AcDbPolyline
 90
        2
 70
     0
 43
0.0
 10
148.4582775152586
 20
104.8317029918912
 10
165.7264003176467
 20
83.90898469135905
1001
ACAD
1000
DSTYLE
1002
{
1070
    40
1040
10.0
1070
    41
1040
0.25
1070
    42
1040
0.1
1070
    43
1040
0.1
1070
    44
1040
0.2
1070
    73
1070
     0
1070
    74
1070
     0
1070
    77
1070
     0
1070
   140
1040
0.25
1070
   147
1040
0.1
1070
   179
1070
     1
1070
   271
1070
     0
1070
   272
1070
     0
1070
   279
1070
     2
1070
   340
1005
22
1002
}
  0
SOLID
  5
1B22
330
1E
100
AcDbEntity
  8
SC
100
AcDbTrace
 10
147.9519566658883
 20
104.6392400726814
 30
0.0
 11
147.3035000000001
 21
107.8696280881128
 31
0.0
 12
148.9645983646288
 22
105.0241659111009
 32
0.0
 13
148.9645983646288
 23
105.0241659111009
 33
0.0
1001
ACAD
1000
DSTYLE
1002
{
1070
    40
1040
10.0
1070
    41
1040
0.25
1070
    42
1040
0.1
1070
    43
1040
0.1
1070
    44
1040
0.2
1070
    73
1070
     0
1070
    74
1070
     0
1070
    77
1070
     0
1070
   140
1040
0.25
1070
   147
1040
0.1
1070
   179
1070
     1
1070
   271
1070
     0
1070
   272
1070
     0
1070
   279
1070
     2
1070
   340
1005
22
1002
}
  0
LINE
  5
1B23
330
1E
100
AcDbEntity
  8
HO
100
AcDbLine
 10
271.2728000000001
 20
189.1764907457556
 30
0.0
 11
271.2728000000001
 21
100.7196280881127
 31
0.0
  0
LINE
  5
1B24
330
1E
100
AcDbEntity
  8
HO
100
AcDbLine
 10
271.2728000000001
 20
176.7889999999999
 30
0.0
 11
271.2728000000001
 21
177.5040000000001
 31
0.0
  0
ARC
  5
1B25
330
1E
100
AcDbEntity
  8
HO
100
AcDbCircle
 10
273.0603
 20
177.5040000000002
 30
0.0
 40
1.7875
100
AcDbArc
 50
90.0
 51
180.0
  0
LINE
  5
1B26
330
1E
100
AcDbEntity
  8
SA
100
AcDbLine
 10
272.7353000000002
 20
177.5040000000001
 30
0.0
 11
272.7353000000002
 21
176.7889999999999
 31
0.0
  0
ARC
  5
1B27
330
1E
100
AcDbEntity
  8
SA
100
AcDbCircle
 10
273.0603
 20
177.5040000000002
 30
0.0
 40
0.325
100
AcDbArc
 50
90.0
 51
180.0
  0
ARC
  5
1B28
330
1E
100
AcDbEntity
  8
SA
100
AcDbCircle
 10
273.0603
 20
177.5040000000002
 30
0.0
 40
3.25
100
AcDbArc
 50
90.0
 51
180.0
  0
SOLID
  5
1B2A
330
1E
100
AcDbEntity
  8
SC
100
AcDbTrace
 10
248.5227999999998
 20
87.88491600150237
 30
0.0
 11
248.5227999999998
 21
86.80158266816906
 31
0.0
 12
245.2727999999999
 22
87.34324933483575
 32
0.0
 13
245.2727999999999
 23
87.34324933483575
 33
0.0
  0
SOLID
  5
1B2B
330
1E
100
AcDbEntity
  8
SC
100
AcDbTrace
 10
294.0228000000001
 20
87.88491600150235
 30
0.0
 11
294.0228000000001
 21
86.80158266816903
 31
0.0
 12
297.2728000000001
 22
87.34324933483573
 32
0.0
 13
297.2728000000001
 23
87.34324933483573
 33
0.0
  0
LINE
  5
1B2C
330
1E
100
AcDbEntity
  8
SC
100
AcDbLine
 10
297.2728000000001
 20
87.34324933483557
 30
0.0
 11
248.5228000000001
 21
87.34324933483566
 31
0.0
  0
LINE
  5
1B2D
330
1E
100
AcDbEntity
  8
SC
100
AcDbLine
 10
245.2728000000001
 20
105.5432493348356
 30
0.0
 11
245.2728000000001
 21
84.74324933483567
 31
0.0
  0
LINE
  5
1B2E
330
1E
100
AcDbEntity
  8
SC
100
AcDbLine
 10
297.2728000000001
 20
105.5432493348356
 30
0.0
 11
297.2728000000001
 21
84.74324933483567
 31
0.0
  0
LINE
  5
1B2F
330
1E
100
AcDbEntity
  8
SA
100
AcDbLine
 10
344.02499769302
 20
177.8289999999999
 30
0.0
 11
366.5082000000001
 21
177.8289999999999
 31
0.0
  0
LINE
  5
1B30
330
1E
100
AcDbEntity
  8
SA
100
AcDbLine
 10
344.8087490808811
 20
180.7539999999999
 30
0.0
 11
366.5082000000001
 21
180.7539999999999
 31
0.0
  0
LINE
  5
1B31
330
1E
100
AcDbEntity
  8
HO
100
AcDbLine
 10
347.9002128885551
 20
192.2915000000001
 30
0.0
 11
340.933533885346
 21
166.2915
 31
0.0
  0
LINE
  5
1B32
330
1E
100
AcDbEntity
  8
HO
100
AcDbLine
 10
341.1709177158895
 20
192.2915000000001
 30
0.0
 11
334.2042387126802
 21
166.2914999999999
 31
0.0
  0
LINE
  5
1B33
330
1E
100
AcDbEntity
  8
SA
100
AcDbLine
 10
386.0082000000001
 20
179.0314999999999
 30
0.0
 11
386.0082000000001
 21
178.5114999999999
 31
0.0
  0
LINE
  5
1B34
330
1E
100
AcDbEntity
  8
SA
100
AcDbLine
 10
379.5082000000001
 20
178.5114999999999
 30
0.0
 11
386.0082000000001
 21
178.5114999999999
 31
0.0
  0
LINE
  5
1B35
330
1E
100
AcDbEntity
  8
SA
100
AcDbLine
 10
379.5082000000001
 20
179.0315
 30
0.0
 11
386.0082000000001
 21
179.0314999999999
 31
0.0
  0
LINE
  5
1B36
330
1E
100
AcDbEntity
  8
SA
100
AcDbLine
 10
379.5082000000001
 20
179.5514999999999
 30
0.0
 11
386.0082000000001
 21
179.5514999999999
 31
0.0
  0
LINE
  5
1B37
330
1E
100
AcDbEntity
  8
SA
100
AcDbLine
 10
379.5082000000001
 20
180.0715
 30
0.0
 11
386.0082000000001
 21
180.0715
 31
0.0
  0
LINE
  5
1B38
330
1E
100
AcDbEntity
  8
SA
100
AcDbLine
 10
366.5082000000001
 20
178.2515
 30
0.0
 11
379.5082000000001
 21
178.2515
 31
0.0
  0
LINE
  5
1B39
330
1E
100
AcDbEntity
  8
SA
100
AcDbLine
 10
366.5082000000001
 20
180.3315
 30
0.0
 11
379.5082000000001
 21
180.3314999999999
 31
0.0
  0
LINE
  5
1B3A
330
1E
100
AcDbEntity
  8
HO
100
AcDbLine
 10
273.0603000000002
 20
179.2915
 30
0.0
 11
390.3281000000003
 21
179.2914999999999
 31
0.0
  0
LINE
  5
1B3B
330
1E
100
AcDbEntity
  8
SA
100
AcDbLine
 10
366.5082000000001
 20
180.7539999999999
 30
0.0
 11
366.5082000000001
 21
177.8289999999999
 31
0.0
  0
LINE
  5
1B3C
330
1E
100
AcDbEntity
  8
SA
100
AcDbLine
 10
379.5082000000001
 20
180.3315
 30
0.0
 11
379.5082000000001
 21
178.2514999999999
 31
0.0
  0
LINE
  5
1B3D
330
1E
100
AcDbEntity
  8
SA
100
AcDbLine
 10
386.0082000000001
 20
180.0715
 30
0.0
 11
386.0082000000001
 21
179.5514999999998
 31
0.0
  0
LINE
  5
1B3E
330
1E
100
AcDbEntity
  8
SA
100
AcDbLine
 10
269.8103
 20
176.7889999999999
 30
0.0
 11
269.8103
 21
177.5040000000001
 31
0.0
  0
LINE
  5
1B3F
330
1E
100
AcDbEntity
  8
SA
100
AcDbLine
 10
297.2728000000001
 20
180.754
 30
0.0
 11
338.0794539082154
 21
180.7539999999999
 31
0.0
  0
LINE
  5
1B40
330
1E
100
AcDbEntity
  8
SA
100
AcDbLine
 10
297.2728000000001
 20
177.829
 30
0.0
 11
297.2728000000001
 21
181.4040000000001
 31
0.0
  0
LINE
  5
1B41
330
1E
100
AcDbEntity
  8
SA
100
AcDbLine
 10
286.8728
 20
177.829
 30
0.0
 11
286.8728
 21
181.4040000000001
 31
0.0
  0
LINE
  5
1B42
330
1E
100
AcDbEntity
  8
SA
100
AcDbLine
 10
286.8728
 20
181.4040000000001
 30
0.0
 11
297.2728000000001
 21
181.4040000000001
 31
0.0
  0
LINE
  5
1B43
330
1E
100
AcDbEntity
  8
SA
100
AcDbLine
 10
273.0603000000002
 20
180.7540000000001
 30
0.0
 11
286.8728
 21
180.754
 31
0.0
  0
LINE
  5
1B44
330
1E
100
AcDbEntity
  8
SA
100
AcDbLine
 10
134.7259999999999
 20
179.4540000000001
 30
0.0
 11
134.7259999999999
 21
177.6578332570476
 31
0.0
  0
LINE
  5
1B45
330
1E
100
AcDbEntity
  8
SA
100
AcDbLine
 10
132.1259999999999
 20
179.4540000000001
 30
0.0
 11
132.1259999999999
 21
177.8221715153813
 31
0.0
  0
ARC
  5
1B46
330
1E
100
AcDbEntity
  8
SA
100
AcDbCircle
 10
133.426
 20
179.4540000000001
 30
0.0
 40
1.3
100
AcDbArc
 50
0.0
 51
180.0
  0
LINE
  5
1B47
330
1E
100
AcDbEntity
  8
SA
100
AcDbLine
 10
130.1760000000001
 20
179.4540000000001
 30
0.0
 11
130.1760000000001
 21
177.8221715153813
 31
0.0
  0
LINE
  5
1B48
330
1E
100
AcDbEntity
  8
SA
100
AcDbLine
 10
127.5760000000001
 20
179.4540000000001
 30
0.0
 11
127.5760000000001
 21
177.6578332570476
 31
0.0
  0
ARC
  5
1B49
330
1E
100
AcDbEntity
  8
SA
100
AcDbCircle
 10
128.8760000000001
 20
179.4540000000001
 30
0.0
 40
1.3
100
AcDbArc
 50
0.0
 51
180.0
  0
LINE
  5
1B4A
330
1E
100
AcDbEntity
  8
SB
100
AcDbLine
 10
262.1728000000002
 20
176.7889999999999
 30
0.0
 11
280.3728000000002
 21
176.7889999999999
 31
0.0
  0
LINE
  5
1B4B
330
1E
100
AcDbEntity
  8
SA
100
AcDbLine
 10
273.0603000000002
 20
177.8289999999999
 30
0.0
 11
337.2957025203545
 21
177.8289999999999
 31
0.0
  0
LINE
  5
1B4C
330
1E
100
AcDbEntity
  8
SA
100
AcDbLine
 10
280.3728000000002
 20
177.8289999999999
 30
0.0
 11
280.3728000000002
 21
161.5789999999999
 31
0.0
  0
LINE
  5
1B4D
330
1E
100
AcDbEntity
  8
SA
100
AcDbLine
 10
262.1728000000002
 20
177.8289999999999
 30
0.0
 11
262.1728000000002
 21
161.5789999999999
 31
0.0
  0
ARC
  5
1B4E
330
1E
100
AcDbEntity
  8
SA
100
AcDbCircle
 10
271.2728000000001
 20
164.4135985482313
 30
0.0
 40
9.531261665154088
100
AcDbArc
 50
197.3015161959319
 51
342.6984838040681
  0
LINE
  5
1B4F
330
1E
100
AcDbEntity
  8
HO
100
AcDbLine
 10
139.601
 20
100.3296280881128
 30
0.0
 11
139.6009999999999
 21
124.5096280881128
 31
0.0
  0
LINE
  5
1B50
330
1E
100
AcDbEntity
  8
SA
100
AcDbLine
 10
275.0916393403733
 20
115.9489999999999
 30
0.0
 11
297.2728000000001
 21
115.9489999999999
 31
0.0
  0
CIRCLE
  5
1B51
330
1E
100
AcDbEntity
  8
SC
100
AcDbCircle
 10
271.2728000000001
 20
112.4196280881127
 30
0.0
 40
4.549999999999999
  0
LINE
  5
1B52
330
1E
100
AcDbEntity
  8
SA
100
AcDbLine
 10
271.2728000000001
 20
115.9660004631127
 30
0.0
 11
268.2015500000001
 21
114.192813448864
 31
0.0
  0
LINE
  5
1B53
330
1E
100
AcDbEntity
  8
SA
100
AcDbLine
 10
271.2728000000001
 20
115.9660004631127
 30
0.0
 11
274.3440500000001
 21
114.1928134488641
 31
0.0
  0
LINE
  5
1B54
330
1E
100
AcDbEntity
  8
SA
100
AcDbLine
 10
271.2728000000001
 20
108.8732557131127
 30
0.0
 11
268.2015500000001
 21
110.6464427273613
 31
0.0
  0
LINE
  5
1B55
330
1E
100
AcDbEntity
  8
SA
100
AcDbLine
 10
271.2728000000001
 20
108.8732557131127
 30
0.0
 11
274.3440500000001
 21
110.6464427273613
 31
0.0
  0
LINE
  5
1B56
330
1E
100
AcDbEntity
  8
SA
100
AcDbLine
 10
274.3440500000001
 20
114.1928134488641
 30
0.0
 11
274.3440500000001
 21
110.6464427273613
 31
0.0
  0
LINE
  5
1B57
330
1E
100
AcDbEntity
  8
SA
100
AcDbLine
 10
268.2015500000001
 20
114.192813448864
 30
0.0
 11
268.2015500000001
 21
110.6464427273613
 31
0.0
  0
CIRCLE
  5
1B58
330
1E
100
AcDbEntity
  8
SA
100
AcDbCircle
 10
271.2728000000001
 20
112.4196280881127
 30
0.0
 40
5.2
  0
LINE
  5
1B59
330
1E
100
AcDbEntity
  8
HO
100
AcDbLine
 10
262.3277966651205
 20
112.4196280881127
 30
0.0
 11
280.0308693460366
 21
112.4196280881127
 31
0.0
  0
LINE
  5
1B5A
330
1E
100
AcDbEntity
  8
SA
100
AcDbLine
 10
245.2728000000001
 20
106.8432493348357
 30
0.0
 11
297.2728000000001
 21
106.8432493348357
 31
0.0
  0
LINE
  5
1B5B
330
1E
100
AcDbEntity
  8
SA
100
AcDbLine
 10
245.2728000000001
 20
115.9489999999999
 30
0.0
 11
267.4539606596271
 21
115.9489999999999
 31
0.0
  0
LINE
  5
1B5C
330
1E
100
AcDbEntity
  8
SA
100
AcDbLine
 10
245.2728000000001
 20
177.8289999999999
 30
0.0
 11
303.7727999999999
 21
177.8289999999999
 31
0.0
  0
LINE
  5
1B5D
330
1E
100
AcDbEntity
  8
SA
100
AcDbLine
 10
245.2728000000001
 20
177.8289999999999
 30
0.0
 11
245.2728000000001
 21
106.8432493348357
 31
0.0
  0
ARC
  5
1B5E
330
1E
100
AcDbEntity
  8
SA
100
AcDbCircle
 10
134.5635
 20
179.6165000000001
 30
0.0
 40
1.4625
100
AcDbArc
 50
0.0
 51
90.0
  0
ARC
  5
1B5F
330
1E
100
AcDbEntity
  8
SA
100
AcDbCircle
 10
127.7385000000001
 20
179.6165000000001
 30
0.0
 40
1.4625
100
AcDbArc
 50
90.0
 51
180.0
  0
LINE
  5
1B60
330
1E
100
AcDbEntity
  8
SA
100
AcDbLine
 10
136.0259999999999
 20
179.6165000000002
 30
0.0
 11
136.026
 21
177.4425263922186
 31
0.0
  0
LINE
  5
1B61
330
1E
100
AcDbEntity
  8
SA
100
AcDbLine
 10
126.276
 20
179.6165000000002
 30
0.0
 11
126.2759999999999
 21
177.4425263922186
 31
0.0
  0
LINE
  5
1B62
330
1E
100
AcDbEntity
  8
SA
100
AcDbLine
 10
134.5634999999999
 20
181.0790000000001
 30
0.0
 11
127.7385000000001
 21
181.0790000000001
 31
0.0
  0
LINE
  5
1B63
330
1E
100
AcDbEntity
  8
SA
100
AcDbLine
 10
135.6658526193402
 20
172.4940015783174
 30
0.0
 11
136.3430805122414
 21
176.334751815065
 31
0.0
  0
LINE
  5
1B64
330
1E
100
AcDbEntity
  8
SA
100
AcDbLine
 10
126.6361473806598
 20
172.4940015783174
 30
0.0
 11
125.9589194877587
 21
176.334751815065
 31
0.0
  0
LINE
  5
1B65
330
1E
100
AcDbEntity
  8
SC
100
AcDbLine
 10
145.5711951948577
 20
116.9696280881129
 30
0.0
 11
145.191
 21
116.5894328932551
 31
0.0
  0
LINE
  5
1B66
330
1E
100
AcDbEntity
  8
SC
100
AcDbLine
 10
147.4096728259427
 20
116.9696280881128
 30
0.0
 11
145.191
 21
114.75095526217
 31
0.0
  0
LINE
  5
1B67
330
1E
100
AcDbEntity
  8
SC
100
AcDbLine
 10
149.2481504570277
 20
116.9696280881128
 30
0.0
 11
145.1909999999999
 21
112.912477631085
 31
0.0
  0
LINE
  5
1B68
330
1E
100
AcDbEntity
  8
SC
100
AcDbLine
 10
149.4159999999999
 20
109.7835671067449
 30
0.0
 11
147.5020609813679
 21
107.8696280881128
 31
0.0
  0
LINE
  5
1B69
330
1E
100
AcDbEntity
  8
SC
100
AcDbLine
 10
149.416
 20
111.6220447378299
 30
0.0
 11
145.6635833502829
 21
107.8696280881128
 31
0.0
  0
LINE
  5
1B6A
330
1E
100
AcDbEntity
  8
SC
100
AcDbLine
 10
149.416
 20
113.4605223689149
 30
0.0
 11
145.191
 21
109.2355223689149
 31
0.0
  0
LINE
  5
1B6B
330
1E
100
AcDbEntity
  8
SC
100
AcDbLine
 10
147.6159271740572
 20
116.9696280881128
 30
0.0
 11
149.416
 21
115.1695552621701
 31
0.0
  0
LINE
  5
1B6C
330
1E
100
AcDbEntity
  8
SC
100
AcDbLine
 10
145.7774495429723
 20
116.9696280881129
 30
0.0
 11
149.416
 21
113.3310776310851
 31
0.0
  0
LINE
  5
1B6D
330
1E
100
AcDbEntity
  8
SC
100
AcDbLine
 10
145.1909999999999
 20
108.36368947566
 30
0.0
 11
145.6850613875471
 21
107.8696280881128
 31
0.0
  0
LINE
  5
1B6E
330
1E
100
AcDbEntity
  8
SC
100
AcDbLine
 10
145.191
 20
110.2021671067449
 30
0.0
 11
147.523539018632
 21
107.8696280881128
 31
0.0
  0
LINE
  5
1B6F
330
1E
100
AcDbEntity
  8
SC
100
AcDbLine
 10
145.191
 20
112.0406447378299
 30
0.0
 11
149.3620166497171
 21
107.8696280881128
 31
0.0
  0
LINE
  5
1B70
330
1E
100
AcDbEntity
  8
SC
100
AcDbLine
 10
145.191
 20
113.8791223689149
 30
0.0
 11
149.416
 21
109.6541223689149
 31
0.0
  0
LINE
  5
1B71
330
1E
100
AcDbEntity
  8
SC
100
AcDbLine
 10
145.1909999999999
 20
115.7176
 30
0.0
 11
149.416
 21
111.4926
 31
0.0
  0
LINE
  5
1B72
330
1E
100
AcDbEntity
  8
SC
100
AcDbLine
 10
149.416
 20
115.299
 30
0.0
 11
145.191
 21
111.074
 31
0.0
  0
CIRCLE
  5
1B73
330
1E
100
AcDbEntity
  8
SA
100
AcDbCircle
 10
131.1509999999999
 20
146.889
 30
0.0
 40
29.9
  0
LINE
  5
1B74
330
1E
100
AcDbEntity
  8
HO
100
AcDbLine
 10
122.701
 20
100.3296280881127
 30
0.0
 11
122.701
 21
124.5096280881128
 31
0.0
  0
LINE
  5
1B75
330
1E
100
AcDbEntity
  8
SA
100
AcDbLine
 10
127.6495452407752
 20
109.8196280881127
 30
0.0
 11
134.6524547592246
 21
109.8196280881128
 31
0.0
  0
LINE
  5
1B76
330
1E
100
AcDbEntity
  8
SC
100
AcDbLine
 10
127.9398548366985
 20
110.4696280881127
 30
0.0
 11
134.3621451633014
 21
110.4696280881127
 31
0.0
  0
LINE
  5
1B77
330
1E
100
AcDbEntity
  8
SC
100
AcDbLine
 10
127.9398548366985
 20
114.3696280881128
 30
0.0
 11
134.3621451633014
 21
114.3696280881128
 31
0.0
  0
LINE
  5
1B78
330
1E
100
AcDbEntity
  8
SA
100
AcDbLine
 10
127.6495452407753
 20
115.0196280881128
 30
0.0
 11
134.6524547592246
 21
115.0196280881128
 31
0.0
  0
LINE
  5
1B79
330
1E
100
AcDbEntity
  8
SA
100
AcDbLine
 10
144.5495452407753
 20
115.0196280881128
 30
0.0
 11
145.191
 21
115.0196280881128
 31
0.0
  0
LINE
  5
1B7A
330
1E
100
AcDbEntity
  8
SC
100
AcDbLine
 10
144.8398548366985
 20
114.3696280881128
 30
0.0
 11
145.191
 21
114.3696280881128
 31
0.0
  0
LINE
  5
1B7B
330
1E
100
AcDbEntity
  8
SA
100
AcDbLine
 10
144.5495452407753
 20
109.8196280881128
 30
0.0
 11
145.191
 21
109.8196280881128
 31
0.0
  0
LINE
  5
1B7C
330
1E
100
AcDbEntity
  8
SC
100
AcDbLine
 10
144.8398548366985
 20
110.4696280881127
 30
0.0
 11
145.191
 21
110.4696280881128
 31
0.0
  0
LINE
  5
1B7D
330
1E
100
AcDbEntity
  8
SC
100
AcDbLine
 10
106.841
 20
109.8196280881127
 30
0.0
 11
106.191
 21
110.4696280881127
 31
0.0
  0
LINE
  5
1B7E
330
1E
100
AcDbEntity
  8
SC
100
AcDbLine
 10
106.841
 20
115.0196280881128
 30
0.0
 11
106.191
 21
114.3696280881128
 31
0.0
  0
LINE
  5
1B7F
330
1E
100
AcDbEntity
  8
SC
100
AcDbLine
 10
106.191
 20
110.4696280881127
 30
0.0
 11
117.4621451633014
 21
110.4696280881127
 31
0.0
  0
LINE
  5
1B80
330
1E
100
AcDbEntity
  8
SC
100
AcDbLine
 10
106.191
 20
114.3696280881128
 30
0.0
 11
117.4621451633014
 21
114.3696280881128
 31
0.0
  0
LINE
  5
1B81
330
1E
100
AcDbEntity
  8
SC
100
AcDbLine
 10
106.841
 20
115.0196280881128
 30
0.0
 11
106.841
 21
109.8196280881127
 31
0.0
  0
LINE
  5
1B82
330
1E
100
AcDbEntity
  8
SA
100
AcDbLine
 10
106.191
 20
114.3696280881128
 30
0.0
 11
106.191
 21
110.4696280881127
 31
0.0
  0
LINE
  5
1B83
330
1E
100
AcDbEntity
  8
SA
100
AcDbLine
 10
106.841
 20
115.0196280881128
 30
0.0
 11
117.7524547592247
 21
115.0196280881128
 31
0.0
  0
LINE
  5
1B84
330
1E
100
AcDbEntity
  8
SA
100
AcDbLine
 10
106.841
 20
109.8196280881127
 30
0.0
 11
117.7524547592247
 21
109.8196280881127
 31
0.0
  0
LINE
  5
1B85
330
1E
100
AcDbEntity
  8
SA
100
AcDbLine
 10
150.3909999999999
 20
108.8446280881128
 30
0.0
 11
149.416
 21
107.8696280881128
 31
0.0
  0
LINE
  5
1B86
330
1E
100
AcDbEntity
  8
SA
100
AcDbLine
 10
149.416
 20
116.9696280881128
 30
0.0
 11
150.3909999999999
 21
115.9946280881128
 31
0.0
  0
LINE
  5
1B87
330
1E
100
AcDbEntity
  8
SB
100
AcDbLine
 10
149.416
 20
116.9696280881128
 30
0.0
 11
149.4159999999999
 21
107.8696280881127
 31
0.0
  0
LINE
  5
1B88
330
1E
100
AcDbEntity
  8
SA
100
AcDbLine
 10
150.3909999999999
 20
115.9946280881128
 30
0.0
 11
150.3909999999999
 21
108.8446280881127
 31
0.0
  0
LINE
  5
1B89
330
1E
100
AcDbEntity
  8
SA
100
AcDbLine
 10
145.191
 20
116.9696280881128
 30
0.0
 11
145.191
 21
107.8696280881128
 31
0.0
  0
LINE
  5
1B8A
330
1E
100
AcDbEntity
  8
SA
100
AcDbLine
 10
145.191
 20
107.8696280881128
 30
0.0
 11
149.416
 21
107.8696280881128
 31
0.0
  0
LINE
  5
1B8B
330
1E
100
AcDbEntity
  8
SA
100
AcDbLine
 10
145.191
 20
116.9696280881128
 30
0.0
 11
149.4159999999999
 21
116.9696280881128
 31
0.0
  0
LINE
  5
1B8C
330
1E
100
AcDbEntity
  8
HO
100
AcDbLine
 10
99.69100000000004
 20
112.4196280881128
 30
0.0
 11
156.8909999999999
 21
112.4196280881128
 31
0.0
  0
ARC
  5
1B8D
330
1E
100
AcDbEntity
  8
SA
100
AcDbCircle
 10
131.1509999999999
 20
146.889
 30
0.0
 40
30.94
100
AcDbArc
 50
295.6646374503054
 51
244.3353625496946
  0
ARC
  5
1B8E
330
1E
100
AcDbEntity
  8
SA
100
AcDbCircle
 10
145.395753185942
 20
117.2437793620692
 30
0.0
 40
1.95
100
AcDbArc
 50
115.6646374503054
 51
219.777493690327
  0
ARC
  5
1B8F
330
1E
100
AcDbEntity
  8
SA
100
AcDbCircle
 10
131.1509999999999
 20
146.889
 30
0.0
 40
30.94
100
AcDbArc
 50
283.7741469980269
 51
291.5926907380157
  0
CIRCLE
  5
1B90
330
1E
100
AcDbEntity
  8
SA
100
AcDbCircle
 10
139.6009999999999
 20
112.4196280881128
 30
0.0
 40
4.549999999999999
  0
ARC
  5
1B91
330
1E
100
AcDbEntity
  8
SA
100
AcDbCircle
 10
139.6009999999999
 20
112.4196280881128
 30
0.0
 40
5.589999999999999
100
AcDbArc
 50
103.7741469980269
 51
39.77749369032702
  0
ARC
  5
1B92
330
1E
100
AcDbEntity
  8
SA
100
AcDbCircle
 10
145.395753185942
 20
117.2437793620692
 30
0.0
 40
2.989999999999999
100
AcDbArc
 50
115.6646374503054
 51
219.7774936903224
  0
ARC
  5
1B93
330
1E
100
AcDbEntity
  8
SA
100
AcDbCircle
 10
131.1509999999999
 20
146.889
 30
0.0
 40
30.94
100
AcDbArc
 50
248.4073092619843
 51
256.2258530019731
  0
ARC
  5
1B94
330
1E
100
AcDbEntity
  8
SA
100
AcDbCircle
 10
116.9062468140579
 20
117.2437793620692
 30
0.0
 40
2.989999999999999
100
AcDbArc
 50
320.2225063096776
 51
64.3353625496946
  0
ARC
  5
1B95
330
1E
100
AcDbEntity
  8
SA
100
AcDbCircle
 10
116.9062468140579
 20
117.2437793620692
 30
0.0
 40
1.95
100
AcDbArc
 50
320.2225063096729
 51
64.3353625496946
  0
ARC
  5
1B96
330
1E
100
AcDbEntity
  8
SA
100
AcDbCircle
 10
122.7009999999999
 20
112.4196280881128
 30
0.0
 40
5.589999999999999
100
AcDbArc
 50
140.222506309673
 51
76.22585300197306
  0
CIRCLE
  5
1B97
330
1E
100
AcDbEntity
  8
SA
100
AcDbCircle
 10
122.7009999999999
 20
112.4196280881128
 30
0.0
 40
4.549999999999999
  0
ARC
  5
1B98
330
1E
100
AcDbEntity
  8
SB
100
AcDbCircle
 10
131.1509999999999
 20
146.889
 30
0.0
 40
30.94
100
AcDbArc
 50
283.7741469980269
 51
291.5926907380157
  0
ARC
  5
1B99
330
1E
100
AcDbEntity
  8
SA
100
AcDbCircle
 10
131.1509999999999
 20
146.889
 30
0.0
 40
26.0
100
AcDbArc
 50
100.0000000000018
 51
79.99999999999819
  0
LINE
  5
1B9A
330
1E
100
AcDbEntity
  8
HO
100
AcDbLine
 10
131.151
 20
190.8290000000001
 30
0.0
 11
131.151
 21
100.0696280881127
 31
0.0
  0
LINE
  5
1B9B
330
1E
100
AcDbEntity
  8
HO
100
AcDbLine
 10
90.461
 20
146.889
 30
0.0
 11
171.841
 21
146.889
 31
0.0
  0
LEADER
  5
1BA0
330
1E
100
AcDbEntity
  8
SC
100
AcDbLeader
  3
Standard
 76
     2
 10
292.1853005891029
 20
181.4620997492417
 30
0.0
 10
308.3191754936277
 20
212.9825014918881
 30
0.0
1001
ACAD
1000
DSTYLE
1002
{
1070
   147
1040
0.625
1070
    77
1070
     0
1002
}
  0
TEXT
  5
1BA1
330
1E
100
AcDbEntity
  8
MO
100
AcDbText
 10
333.0322449265444
 20
206.0542894735504
 30
0.0
 40
3.25
  1
ガラスチューブ
  7
0
100
AcDbText
  0
SOLID
  5
1BCA
330
1E
100
AcDbEntity
  8
SC
100
AcDbTrace
 10
148.175591832653
 20
163.0942490606491
 30
0.0
 11
148.7386276446492
 21
162.4798915760733
 31
0.0
 12
150.3001821923785
 22
164.4761777543497
 32
0.0
 13
150.3001821923785
 23
164.4761777543497
 33
0.0
  0
SOLID
  5
1BCB
330
1E
100
AcDbEntity
  8
SC
100
AcDbTrace
 10
154.8106526660714
 20
169.1750358302074
 30
0.0
 11
155.3736884780674
 21
168.5606783456316
 31
0.0
 12
153.249098118342
 22
167.178749651931
 32
0.0
 13
153.249098118342
 23
167.178749651931
 33
0.0
  0
LINE
  5
1BCC
330
1E
100
AcDbEntity
  8
SC
100
AcDbLine
 10
150.3047603722899
 20
164.4711916609078
 30
0.0
 11
112.0082133112687
 21
129.4316685530305
 31
0.0
  0
TEXT
  5
1BCD
330
1E
100
AcDbEntity
  8
SC
100
AcDbText
 10
155.4439795519739
 20
171.7736926888807
 30
0.0
 40
3.0
  1
t（3.5）
 50
42.50410078103731
  7
0
100
AcDbText
  0
SOLID
  5
1BCE
330
1E
100
AcDbEntity
  8
SC
100
AcDbTrace
 10
113.491294485403
 20
131.3769121356526
 30
0.0
 11
114.0543302973991
 21
130.7625546510768
 31
0.0
 12
111.9297399376737
 22
129.3806259573763
 32
0.0
 13
111.9297399376737
 23
129.3806259573763
 33
0.0
  0
LINE
  5
1BD0
330
1E
100
AcDbEntity
  8
SC
100
AcDbLine
 10
108.3024121536447
 20
126.0269379392308
 30
0.0
 11
170.622847056591
 21
183.0856230888759
 31
0.0
  0
TEXT
  5
1BD8
330
1E
100
AcDbEntity
  8
MO
100
AcDbText
 10
136.4602410016743
 20
153.0558072469983
 30
0.0
 40
4.8
  1
A φ
 50
42.50410078103731
  7
0
100
AcDbText
  0
TEXT
  5
1BE1
330
1E
100
AcDbEntity
  8
MO
100
AcDbText
 10
269.4930000402826
 20
88.03500011419911
 30
0.0
 40
6.0
  1
B
  7
0
100
AcDbText
  0
TEXT
  5
1BEC
330
1E
100
AcDbEntity
  8
MO
100
AcDbText
 10
170.5689258934033
 20
188.6629995525605
 30
0.0
 40
3.599999999999999
  1
ヒーターバンド
  7
0
100
AcDbText
  0
TEXT
  5
1BED
330
1E
100
AcDbEntity
  8
MO
100
AcDbText
 10
158.493446362341
 20
194.6142072125702
 30
0.0
 40
3.599999999999999
  1
ヒーター（C）
  7
0
100
AcDbText
  0
LINE
  5
1BEE
330
1E
100
AcDbEntity
  8
SC
100
AcDbLine
 10
156.1393132816632
 20
193.7334877370684
 30
0.0
 11
200.792925317287
 21
193.7334877370684
 31
0.0
  0
LINE
  5
1BEF
330
1E
100
AcDbEntity
  8
SC
100
AcDbLine
 10
141.9049994263709
 20
173.2789998947063
 30
0.0
 11
156.1393132816632
 21
193.7334877370684
 31
0.0
  0
CIRCLE
  5
1BF0
330
1E
100
AcDbEntity
  8
SC
100
AcDbCircle
 10
141.9049994263709
 20
173.2789998947063
 30
0.0
 40
0.4
  0
TEXT
  5
1BFF
330
1E
100
AcDbEntity
  8
MO
100
AcDbText
 10
332.0850006680625
 20
190.1990003186758
 30
0.0
 40
6.0
  1
D
  7
0
100
AcDbText
  0
TEXT
  5
1C07
330
1E
100
AcDbEntity
  8
MO
100
AcDbText
 10
99.26148790805797
 20
33.61824969380628
 30
0.0
 40
4.375
  1
リード長
  7
0
 72
     1
 11
109.6156545747246
 21
33.61824969380628
 31
0.0
100
AcDbText
  0
TEXT
  5
1C08
330
1E
100
AcDbEntity
  8
MO
100
AcDbText
 10
150.7363375097419
 20
32.75375974362896
 30
0.0
 40
3.0625
  1
mm
  7
0
 72
     1
 11
154.5280041764086
 21
32.75375974362896
 31
0.0
100
AcDbText
  0
CIRCLE
  5
1C09
330
1E
100
AcDbEntity
  8
SZ
100
AcDbCircle
 10
131.0882536776974
 20
146.889
 30
0.0
 40
45.58357508424573
  0
LEADER
  5
1C0F
330
1E
100
AcDbEntity
  8
SC
100
AcDbLeader
  3
Standard
 76
     3
 10
95.35574133302018
 20
118.5861754236692
 30
0.0
 10
76.438
 20
81.43500000000001
 30
0.0
 10
151.308
 20
81.43500000000001
 30
0.0
1001
ACAD
1000
DSTYLE
1002
{
1070
   147
1040
0.09
1070
    77
1070
     0
1002
}
  0
TEXT
  5
1C16
330
1E
100
AcDbEntity
  8
MO
100
AcDbText
 10
94.62433356032375
 20
81.72633317752254
 30
0.0
 40
3.25
  1
仕上り外径　内径＋25以下
  7
0
100
AcDbText
  0
LINE
  5
1C17
330
1E
100
AcDbEntity
  8
SC
100
AcDbLine
 10
165.7264003176467
 20
83.90898469135905
 30
0.0
 11
201.251
 21
83.90898469135905
 31
0.0
  0
SOLID
  5
1C2B
330
1E
100
AcDbEntity
  8
SC
100
AcDbTrace
 10
374.0592255245106
 20
182.0654136247053
 30
0.0
 11
373.0082000000001
 21
180.3315
 31
0.0
 12
373.4400629692272
 22
182.3125617069949
 32
0.0
 13
373.4400629692272
 23
182.3125617069949
 33
0.0
1001
ACAD
1000
DSTYLE
1002
{
1070
   147
1040
0.09
1070
    77
1070
     0
1002
}
  0
LINE
  5
1C2D
330
1E
100
AcDbEntity
  8
SC
100
AcDbLine
 10
373.7496442468689
 20
182.18898766585
 30
0.0
 11
378.841
 21
194.944
 31
0.0
1001
ACAD
1000
DSTYLE
1002
{
1070
   147
1040
0.09
1070
    77
1070
     0
1002
}
  0
LINE
  5
1C2F
330
1E
100
AcDbEntity
  8
SC
100
AcDbLine
 10
378.841
 20
194.944
 30
0.0
 11
400.795
 21
194.944
 31
0.0
  0
TEXT
  5
1C3B
330
1E
100
AcDbEntity
  8
MO
100
AcDbText
 10
380.2975060574876
 20
195.619605532289
 30
0.0
 40
2.799999999999998
  1
耐熱リード線
  7
0
100
AcDbText
  0
LINE
  5
1C3F
330
1E
100
AcDbEntity
  8
SC
100
AcDbLine
 10
308.3191754936277
 20
212.9825014918881
 30
0.0
 11
336.944
 21
212.9825014918881
 31
0.0
  0
TEXT
  5
1C46
330
1E
100
AcDbEntity
  8
MO
100
AcDbText
 10
312.9179993223877
 20
213.199999681982
 30
0.0
 40
2.799999999999998
  1
リード止め金具
  7
0
100
AcDbText
  0
ENDSEC
  0
SECTION
  2
OBJECTS
  0
DICTIONARY
  5
C
330
0
100
AcDbDictionary
281
     1
  3
ACAD_COLOR
350
1793
  3
ACAD_GROUP
350
D
  3
ACAD_LAYOUT
350
19
  3
ACAD_MATERIAL
350
1792
  3
ACAD_MLINESTYLE
350
16
  3
ACAD_PLOTSETTINGS
350
18
  3
ACAD_PLOTSTYLENAME
350
E
  3
ACAD_TABLESTYLE
350
17A5
  3
ACDBHEADERROUNDTRIPXREC
350
1C4C
  3
AcDbVariableDictionary
350
17B5
  0
DICTIONARY
  5
1793
102
{ACAD_REACTORS
330
C
102
}
330
C
100
AcDbDictionary
281
     1
  0
DICTIONARY
  5
D
102
{ACAD_REACTORS
330
C
102
}
330
C
100
AcDbDictionary
281
     1
  0
DICTIONARY
  5
19
102
{ACAD_REACTORS
330
C
102
}
330
C
100
AcDbDictionary
281
     1
  3
Model
350
21
  3
ﾚｲｱｳﾄ1
350
1D
  0
DICTIONARY
  5
1792
102
{ACAD_REACTORS
330
C
102
}
330
C
100
AcDbDictionary
281
     1
  0
DICTIONARY
  5
16
102
{ACAD_REACTORS
330
C
102
}
330
C
100
AcDbDictionary
281
     1
  3
Standard
350
17
  0
DICTIONARY
  5
18
102
{ACAD_REACTORS
330
C
102
}
330
C
100
AcDbDictionary
281
     1
  0
ACDBDICTIONARYWDFLT
  5
E
102
{ACAD_REACTORS
330
C
102
}
330
C
100
AcDbDictionary
281
     1
  3
Normal
350
F
100
AcDbDictionaryWithDefault
340
F
  0
DICTIONARY
  5
17A5
102
{ACAD_REACTORS
330
C
102
}
330
C
100
AcDbDictionary
281
     1
  3
Standard
350
17A6
  0
DICTIONARY
  5
1C4C
102
{ACAD_REACTORS
330
C
102
}
330
C
100
AcDbDictionary
281
     1
  3
COLORDICT
350
1C4E
  3
MATERIALDICT
350
1C4D
  0
DICTIONARY
  5
17B5
102
{ACAD_REACTORS
330
C
102
}
330
C
100
AcDbDictionary
281
     1
  3
CTABLESTYLE
350
17B6
  3
DIMASSOC
350
1C49
  3
PROJECTNAME
350
1C4A
  0
LAYOUT
  5
21
102
{ACAD_XDICTIONARY
360
1C51
102
}
102
{ACAD_REACTORS
330
19
102
}
330
19
100
AcDbPlotSettings
  1

  2
\\AISEI\FX DocuPrint 205
  4
A4
  6
HYOU
 40
4.900083065032958
 41
4.900057315826416
 42
4.90008544921875
 43
4.90008544921875
 44
210.0156707763672
 45
297.0106506347656
 46
-1.0
 47
10.0
 48
0.0
 49
0.0
140
0.0
141
0.0
142
1.0
143
1.483401617978499
 70
 11952
 72
     1
 73
     1
 74
     2
  7
monochrome.ctb
 75
     0
147
0.6741262702428131
148
0.0
149
0.0
100
AcDbLayout
  1
Model
 70
     1
 71
     0
 10
0.0
 20
0.0
 11
12.0
 21
9.0
 12
0.0
 22
0.0
 32
0.0
 14
0.0
 24
0.0
 34
0.0
 15
0.0
 25
0.0
 35
0.0
146
0.0
 13
0.0
 23
0.0
 33
0.0
 16
1.0
 26
0.0
 36
0.0
 17
0.0
 27
1.0
 37
0.0
 76
     0
330
1E
1001
ACAD_PSEXT
1000
FX DocuPrint 205
1000
FX DocuPrint 205
1000
USB001
1000

1070
     0
  0
LAYOUT
  5
1D
102
{ACAD_XDICTIONARY
360
1C4F
102
}
102
{ACAD_REACTORS
330
19
102
}
330
19
100
AcDbPlotSettings
  1

  2
EPSON LP-1500S
  4

  6

 40
0.0
 41
0.0
 42
0.0
 43
0.0
 44
0.0
 45
0.0
 46
0.0
 47
0.0
 48
0.0
 49
0.0
140
0.0
141
0.0
142
1.0
143
1.0
 70
   688
 72
     0
 73
     0
 74
     5
  7
monochrome.ctb
 75
    16
147
1.0
148
0.0
149
0.0
100
AcDbLayout
  1
ﾚｲｱｳﾄ1
 70
     0
 71
     1
 10
0.0
 20
0.0
 11
12.0
 21
9.0
 12
0.0
 22
0.0
 32
0.0
 14
1.000000000000000E+20
 24
1.000000000000000E+20
 34
1.000000000000000E+20
 15
-1.000000000000000E+20
 25
-1.000000000000000E+20
 35
-1.000000000000000E+20
146
0.0
 13
0.0
 23
0.0
 33
0.0
 16
1.0
 26
0.0
 36
0.0
 17
0.0
 27
1.0
 37
0.0
 76
     0
330
1A
  0
MLINESTYLE
  5
17
102
{ACAD_REACTORS
330
16
102
}
330
16
100
AcDbMlineStyle
  2
STANDARD
 70
     0
  3

 62
   256
 51
90.0
 52
90.0
 71
     2
 49
0.5
 62
   256
  6
BYLAYER
 49
-0.5
 62
   256
  6
BYLAYER
  0
ACDBPLACEHOLDER
  5
F
102
{ACAD_REACTORS
330
E
102
}
330
E
  0
ACAD_PROXY_OBJECT
  5
17A6
102
{ACAD_REACTORS
330
17A5
102
}
330
17A5
100
AcDbProxyObject
 90
      499
 91
      503
 95
       25
 70
     0
 93
     1841
310
4214DD185B99185C9928B81E85EB51B8AE3F2E07A17AD46E2B8FC02B5E8DC0F42B1CFD028000000C1008070000C3001FDFF8000000C1003FBFF000000182007F7FE00000030400FEFFC00000060801FDFF8000000C1003FBFF00000018200000000000000681FA0B0000001820100E000186003FBFF000000182007F7FE000
310
00030400FEFFC00000060801FDFF8000000C1003FBFF000000182007F7FE000000304000AD7A3703D0AC73F4160000003040201C00030C007F7FE00000030400FEFFC00000060801FDFF8000000C1003FBFF000000182007F7FE00000030400FEFFC000000608000
340
11
340
11
340
11
 94
        0
1001
ACAD
1000
AcRTDxfName
1000
TABLESTYLE
  0
XRECORD
  5
1C4E
102
{ACAD_REACTORS
330
1C4C
102
}
330
1C4C
100
AcDbXrecord
280
     1
340
1793
  0
XRECORD
  5
1C4D
102
{ACAD_REACTORS
330
1C4C
102
}
330
1C4C
100
AcDbXrecord
280
     1
340
1792
  0
DICTIONARYVAR
  5
17B6
102
{ACAD_REACTORS
330
17B5
102
}
330
17B5
100
DictionaryVariables
280
     0
  1
STANDARD
  0
DICTIONARYVAR
  5
1C49
102
{ACAD_REACTORS
330
17B5
102
}
330
17B5
100
DictionaryVariables
280
     0
  1
1
  0
DICTIONARYVAR
  5
1C4A
102
{ACAD_REACTORS
330
17B5
102
}
330
17B5
100
DictionaryVariables
280
     0
  1

  0
DICTIONARY
  5
1C51
330
21
100
AcDbDictionary
280
     1
281
     1
  3
ACAD_XREC_ROUNDTRIP
360
1C52
  0
DICTIONARY
  5
1C4F
330
1D
100
AcDbDictionary
280
     1
281
     1
  3
ACAD_XREC_ROUNDTRIP
360
1C50
  0
XRECORD
  5
1C52
102
{ACAD_REACTORS
330
1C51
102
}
330
1C51
100
AcDbXrecord
280
     1
102
SHADEPLOT
 70
     0
102
SHADEPLOTRESLEVEL
 70
     2
102
SHADEPLOTCUSTOMDPI
 70
   300
  0
XRECORD
  5
1C50
102
{ACAD_REACTORS
330
1C4F
102
}
330
1C4F
100
AcDbXrecord
280
     1
102
SHADEPLOT
 70
     0
102
SHADEPLOTRESLEVEL
 70
     2
102
SHADEPLOTCUSTOMDPI
 70
   300
  0
ENDSEC
  0
EOF
