  0
SECTION
  2
HEADER
  9
$ACADVER
  1
AC1015
  9
$ACADMAINTVER
 70
    20
  9
$DWGCODEPAGE
  3
ANSI_932
  9
$INSBASE
 10
0.0
 20
0.0
 30
0.0
  9
$EXTMIN
 10
3.191529301916716
 20
2.71005318489631
 30
-0.0000000000000053
  9
$EXTMAX
 10
402.3889169730118
 20
294.199310990981
 30
0.0000000000000099
  9
$LIMMIN
 10
0.0
 20
0.0
  9
$LIMMAX
 10
420.0
 20
297.0
  9
$ORTHOMODE
 70
     0
  9
$REGENMODE
 70
     1
  9
$FILLMODE
 70
     1
  9
$QTEXTMODE
 70
     0
  9
$MIRRTEXT
 70
     1
  9
$LTSCALE
 40
12.0
  9
$ATTMODE
 70
     1
  9
$TEXTSIZE
 40
10.0
  9
$TRACEWID
 40
0.3
  9
$TEXTSTYLE
  7
0
  9
$CLAYER
  8
SC
  9
$CELTYPE
  6
ByLayer
  9
$CECOLOR
 62
   256
  9
$CELTSCALE
 40
1.0
  9
$DISPSILH
 70
     0
  9
$DIMSCALE
 40
1.0
  9
$DIMASZ
 40
2.0
  9
$DIMEXO
 40
0.0625
  9
$DIMDLI
 40
0.38
  9
$DIMRND
 40
0.0
  9
$DIMDLE
 40
0.0
  9
$DIMEXE
 40
0.18
  9
$DIMTP
 40
0.0
  9
$DIMTM
 40
0.0
  9
$DIMTXT
 40
2.0
  9
$DIMCEN
 40
0.09
  9
$DIMTSZ
 40
0.0
  9
$DIMTOL
 70
     0
  9
$DIMLIM
 70
     0
  9
$DIMTIH
 70
     1
  9
$DIMTOH
 70
     1
  9
$DIMSE1
 70
     0
  9
$DIMSE2
 70
     0
  9
$DIMTAD
 70
     0
  9
$DIMZIN
 70
     0
  9
$DIMBLK
  1

  9
$DIMASO
 70
     1
  9
$DIMSHO
 70
     0
  9
$DIMPOST
  1

  9
$DIMAPOST
  1

  9
$DIMALT
 70
     0
  9
$DIMALTD
 70
     2
  9
$DIMALTF
 40
25.4
  9
$DIMLFAC
 40
1.0
  9
$DIMTOFL
 70
     0
  9
$DIMTVP
 40
0.0
  9
$DIMTIX
 70
     0
  9
$DIMSOXD
 70
     0
  9
$DIMSAH
 70
     0
  9
$DIMBLK1
  1

  9
$DIMBLK2
  1

  9
$DIMSTYLE
  2
Standard
  9
$DIMCLRD
 70
     0
  9
$DIMCLRE
 70
     0
  9
$DIMCLRT
 70
     0
  9
$DIMTFAC
 40
1.0
  9
$DIMGAP
 40
0.09
  9
$DIMJUST
 70
     0
  9
$DIMSD1
 70
     0
  9
$DIMSD2
 70
     0
  9
$DIMTOLJ
 70
     1
  9
$DIMTZIN
 70
     0
  9
$DIMALTZ
 70
     0
  9
$DIMALTTZ
 70
     0
  9
$DIMUPT
 70
     0
  9
$DIMDEC
 70
     4
  9
$DIMTDEC
 70
     4
  9
$DIMALTU
 70
     2
  9
$DIMALTTD
 70
     2
  9
$DIMTXSTY
  7
STANDARD
  9
$DIMAUNIT
 70
     0
  9
$DIMADEC
 70
     0
  9
$DIMALTRND
 40
0.0
  9
$DIMAZIN
 70
     0
  9
$DIMDSEP
 70
    46
  9
$DIMATFIT
 70
     3
  9
$DIMFRAC
 70
     0
  9
$DIMLDRBLK
  1

  9
$DIMLUNIT
 70
     2
  9
$DIMLWD
 70
    -2
  9
$DIMLWE
 70
    -2
  9
$DIMTMOVE
 70
     0
  9
$LUNITS
 70
     2
  9
$LUPREC
 70
     4
  9
$SKETCHINC
 40
0.1
  9
$FILLETRAD
 40
0.0
  9
$AUNITS
 70
     0
  9
$AUPREC
 70
     1
  9
$MENU
  1
ACAD
  9
$ELEVATION
 40
0.0
  9
$PELEVATION
 40
0.0
  9
$THICKNESS
 40
0.0
  9
$LIMCHECK
 70
     0
  9
$CHAMFERA
 40
0.0
  9
$CHAMFERB
 40
0.0
  9
$CHAMFERC
 40
0.0
  9
$CHAMFERD
 40
0.0
  9
$SKPOLY
 70
     0
  9
$TDCREATE
 40
2450808.702418171
  9
$TDUCREATE
 40
2450808.327418172
  9
$TDUPDATE
 40
2456199.651685648
  9
$TDUUPDATE
 40
2456199.276685648
  9
$TDINDWG
 40
1.7095275810
  9
$TDUSRTIMER
 40
1.7095275810
  9
$USRTIMER
 70
     1
  9
$ANGBASE
 50
0.0
  9
$ANGDIR
 70
     0
  9
$PDMODE
 70
     0
  9
$PDSIZE
 40
0.0
  9
$PLINEWID
 40
1.0
  9
$SPLFRAME
 70
     0
  9
$SPLINETYPE
 70
     6
  9
$SPLINESEGS
 70
     8
  9
$HANDSEED
  5
208D
  9
$SURFTAB1
 70
     6
  9
$SURFTAB2
 70
     6
  9
$SURFTYPE
 70
     6
  9
$SURFU
 70
     6
  9
$SURFV
 70
     6
  9
$UCSBASE
  2

  9
$UCSNAME
  2

  9
$UCSORG
 10
0.0
 20
0.0
 30
0.0
  9
$UCSXDIR
 10
1.0
 20
0.0
 30
0.0
  9
$UCSYDIR
 10
0.0
 20
1.0
 30
0.0
  9
$UCSORTHOREF
  2

  9
$UCSORTHOVIEW
 70
     0
  9
$UCSORGTOP
 10
0.0
 20
0.0
 30
0.0
  9
$UCSORGBOTTOM
 10
0.0
 20
0.0
 30
0.0
  9
$UCSORGLEFT
 10
0.0
 20
0.0
 30
0.0
  9
$UCSORGRIGHT
 10
0.0
 20
0.0
 30
0.0
  9
$UCSORGFRONT
 10
0.0
 20
0.0
 30
0.0
  9
$UCSORGBACK
 10
0.0
 20
0.0
 30
0.0
  9
$PUCSBASE
  2

  9
$PUCSNAME
  2

  9
$PUCSORG
 10
0.0
 20
0.0
 30
0.0
  9
$PUCSXDIR
 10
1.0
 20
0.0
 30
0.0
  9
$PUCSYDIR
 10
0.0
 20
1.0
 30
0.0
  9
$PUCSORTHOREF
  2

  9
$PUCSORTHOVIEW
 70
     0
  9
$PUCSORGTOP
 10
0.0
 20
0.0
 30
0.0
  9
$PUCSORGBOTTOM
 10
0.0
 20
0.0
 30
0.0
  9
$PUCSORGLEFT
 10
0.0
 20
0.0
 30
0.0
  9
$PUCSORGRIGHT
 10
0.0
 20
0.0
 30
0.0
  9
$PUCSORGFRONT
 10
0.0
 20
0.0
 30
0.0
  9
$PUCSORGBACK
 10
0.0
 20
0.0
 30
0.0
  9
$USERI1
 70
     0
  9
$USERI2
 70
     0
  9
$USERI3
 70
     0
  9
$USERI4
 70
     0
  9
$USERI5
 70
     0
  9
$USERR1
 40
0.0
  9
$USERR2
 40
0.0
  9
$USERR3
 40
0.0
  9
$USERR4
 40
0.0
  9
$USERR5
 40
0.0
  9
$WORLDVIEW
 70
     1
  9
$SHADEDGE
 70
     3
  9
$SHADEDIF
 70
    70
  9
$TILEMODE
 70
     1
  9
$MAXACTVP
 70
    16
  9
$PINSBASE
 10
0.0
 20
0.0
 30
0.0
  9
$PLIMCHECK
 70
     0
  9
$PEXTMIN
 10
1.000000000000000E+20
 20
1.000000000000000E+20
 30
1.000000000000000E+20
  9
$PEXTMAX
 10
-1.000000000000000E+20
 20
-1.000000000000000E+20
 30
-1.000000000000000E+20
  9
$PLIMMIN
 10
0.0
 20
0.0
  9
$PLIMMAX
 10
12.0
 20
9.0
  9
$UNITMODE
 70
     0
  9
$VISRETAIN
 70
     0
  9
$PLINEGEN
 70
     0
  9
$PSLTSCALE
 70
     0
  9
$TREEDEPTH
 70
  3020
  9
$CMLSTYLE
  2
Standard
  9
$CMLJUST
 70
     0
  9
$CMLSCALE
 40
1.0
  9
$PROXYGRAPHICS
 70
     1
  9
$MEASUREMENT
 70
     0
  9
$CELWEIGHT
370
    -1
  9
$ENDCAPS
280
     0
  9
$JOINSTYLE
280
     0
  9
$LWDISPLAY
290
     0
  9
$INSUNITS
 70
     0
  9
$HYPERLINKBASE
  1

  9
$STYLESHEET
  1
monochrome.ctb
  9
$XEDIT
290
     1
  9
$CEPSNTYPE
380
     0
  9
$PSTYLEMODE
290
     1
  9
$FINGERPRINTGUID
  2
{51BC8342-4694-11D4-A1F9-0060672295C7}
  9
$VERSIONGUID
  2
{AEEE22F6-1E82-4856-9181-AA53B5876F52}
  9
$EXTNAMES
290
     1
  9
$PSVPSCALE
 40
0.0
  9
$OLESTARTUP
290
     0
  0
ENDSEC
  0
SECTION
  2
CLASSES
  0
CLASS
  1
ACDBDICTIONARYWDFLT
  2
AcDbDictionaryWithDefault
  3
ObjectDBX Classes
 90
        0
280
     0
281
     0
  0
CLASS
  1
ACDBPLACEHOLDER
  2
AcDbPlaceHolder
  3
ObjectDBX Classes
 90
        0
280
     0
281
     0
  0
CLASS
  1
LAYOUT
  2
AcDbLayout
  3
ObjectDBX Classes
 90
        0
280
     0
281
     0
  0
CLASS
  1
TABLESTYLE
  2
AcDbTableStyle
  3
ObjectDBX Classes
 90
     2047
280
     0
281
     0
  0
CLASS
  1
DICTIONARYVAR
  2
AcDbDictionaryVar
  3
ObjectDBX Classes
 90
        0
280
     0
281
     0
  0
ENDSEC
  0
SECTION
  2
TABLES
  0
TABLE
  2
VPORT
  5
8
330
0
100
AcDbSymbolTable
 70
     4
  0
VPORT
  5
2085
330
8
100
AcDbSymbolTableRecord
100
AcDbViewportTableRecord
  2
*Active
 70
     0
 10
0.0
 20
0.0
 11
1.0
 21
1.0
 12
210.0
 22
148.5
 13
0.0
 23
0.0
 14
0.001
 24
0.001
 15
10.0
 25
10.0
 16
0.0
 26
0.0
 36
1.0
 17
0.0
 27
0.0
 37
0.0
 40
300.6
 41
2.417004048582995
 42
50.0
 43
0.0
 44
0.0
 50
0.0
 51
0.0
 71
     0
 72
  2000
 73
     1
 74
     0
 75
     1
 76
     1
 77
     0
 78
     2
281
     0
 65
     1
110
0.0
120
0.0
130
0.0
111
1.0
121
0.0
131
0.0
112
0.0
122
1.0
132
0.0
 79
     0
146
0.0
  0
ENDTAB
  0
TABLE
  2
LTYPE
  5
5
330
0
100
AcDbSymbolTable
 70
     3
  0
LTYPE
  5
13
330
5
100
AcDbSymbolTableRecord
100
AcDbLinetypeTableRecord
  2
ByBlock
 70
     0
  3

 72
    65
 73
     0
 40
0.0
  0
LTYPE
  5
14
330
5
100
AcDbSymbolTableRecord
100
AcDbLinetypeTableRecord
  2
ByLayer
 70
     0
  3

 72
    65
 73
     0
 40
0.0
  0
LTYPE
  5
15
330
5
100
AcDbSymbolTableRecord
100
AcDbLinetypeTableRecord
  2
CONTINUOUS
 70
     0
  3
実線
 72
    65
 73
     0
 40
0.0
  0
LTYPE
  5
23
330
5
100
AcDbSymbolTableRecord
100
AcDbLinetypeTableRecord
  2
CENTER
 70
     0
  3
____ _ ____ _ ____ _ ____ _ ____ _ ____ _ ____
 72
    65
 73
     4
 40
2.0
 49
1.25
 74
     0
 49
-0.25
 74
     0
 49
0.25
 74
     0
 49
-0.25
 74
     0
  0
LTYPE
  5
24
330
5
100
AcDbSymbolTableRecord
100
AcDbLinetypeTableRecord
  2
HIDDEN
 70
     0
  3
_ _ _ _ _ _ _ _ _ _ _ _ _ _ _ _ _ _ _ _ _ _ _
 72
    65
 73
     2
 40
0.375
 49
0.25
 74
     0
 49
-0.125
 74
     0
  0
ENDTAB
  0
TABLE
  2
LAYER
  5
2
330
0
100
AcDbSymbolTable
 70
     9
  0
LAYER
  5
10
330
2
100
AcDbSymbolTableRecord
100
AcDbLayerTableRecord
  2
0
 70
     0
 62
     7
  6
CONTINUOUS
370
    -3
390
F
  0
LAYER
  5
28
330
2
100
AcDbSymbolTableRecord
100
AcDbLayerTableRecord
  2
HO
 70
     0
 62
     2
  6
CENTER
370
    13
390
F
  0
LAYER
  5
29
330
2
100
AcDbSymbolTableRecord
100
AcDbLayerTableRecord
  2
HA
 70
     0
 62
     4
  6
HIDDEN
370
    13
390
F
  0
LAYER
  5
2A
330
2
100
AcDbSymbolTableRecord
100
AcDbLayerTableRecord
  2
SB
 70
     0
 62
     1
  6
CONTINUOUS
370
    20
390
F
  0
LAYER
  5
2B
330
2
100
AcDbSymbolTableRecord
100
AcDbLayerTableRecord
  2
SA
 70
     0
 62
     7
  6
CONTINUOUS
370
    30
390
F
  0
LAYER
  5
2C
330
2
100
AcDbSymbolTableRecord
100
AcDbLayerTableRecord
  2
MO
 70
     0
 62
     3
  6
CONTINUOUS
370
    20
390
F
  0
LAYER
  5
2D
330
2
100
AcDbSymbolTableRecord
100
AcDbLayerTableRecord
  2
SC
 70
     0
 62
     6
  6
CONTINUOUS
370
    13
390
F
  0
LAYER
  5
2E
330
2
100
AcDbSymbolTableRecord
100
AcDbLayerTableRecord
  2
DEFPOINTS
 70
     0
 62
     7
  6
CONTINUOUS
290
     0
370
    -3
390
F
  0
LAYER
  5
1397
330
2
100
AcDbSymbolTableRecord
100
AcDbLayerTableRecord
  2
sd
 70
     0
 62
     1
  6
CONTINUOUS
370
    20
390
F
  0
ENDTAB
  0
TABLE
  2
STYLE
  5
3
330
0
100
AcDbSymbolTable
 70
     2
  0
STYLE
  5
11
330
3
100
AcDbSymbolTableRecord
100
AcDbTextStyleTableRecord
  2
STANDARD
 70
     0
 40
0.0
 41
1.0
 50
0.0
 71
     0
 42
0.2
  3
TXT
  4

  0
STYLE
  5
22
330
3
100
AcDbSymbolTableRecord
100
AcDbTextStyleTableRecord
  2
0
 70
     0
 40
0.0
 41
1.0
 50
0.0
 71
     0
 42
10.0
  3
SIMPLEX
  4
BIGFONT
  0
ENDTAB
  0
TABLE
  2
VIEW
  5
6
330
0
100
AcDbSymbolTable
 70
     1
  0
VIEW
  5
25
330
6
100
AcDbSymbolTableRecord
100
AcDbViewTableRecord
  2
HYOU
 70
     0
 40
162.519
 10
329.94
 20
84.5855
 41
158.206
 11
0.0
 21
0.0
 31
1.0
 12
0.0
 22
0.0
 32
0.0
 42
0.0
 43
0.0
 44
0.0
 50
0.0
 71
     0
281
     0
 72
     0
  0
ENDTAB
  0
TABLE
  2
UCS
  5
7
330
0
100
AcDbSymbolTable
 70
     0
  0
ENDTAB
  0
TABLE
  2
APPID
  5
9
330
0
100
AcDbSymbolTable
 70
     2
  0
APPID
  5
12
330
9
100
AcDbSymbolTableRecord
100
AcDbRegAppTableRecord
  2
ACAD
 70
     0
  0
APPID
  5
17B3
330
9
100
AcDbSymbolTableRecord
100
AcDbRegAppTableRecord
  2
ACAD_PSEXT
 70
     0
  0
ENDTAB
  0
TABLE
  2
DIMSTYLE
  5
A
330
0
100
AcDbSymbolTable
 70
     1
100
AcDbDimStyleTable
 71
     1
340
3C3
  0
DIMSTYLE
105
3C3
330
A
100
AcDbSymbolTableRecord
100
AcDbDimStyleTableRecord
  2
Standard
 70
     0
 41
2.0
140
2.0
340
11
  0
ENDTAB
  0
TABLE
  2
BLOCK_RECORD
  5
1
330
0
100
AcDbSymbolTable
 70
     1
  0
BLOCK_RECORD
  5
1E
330
1
100
AcDbSymbolTableRecord
100
AcDbBlockTableRecord
  2
*Model_Space
340
21
  0
BLOCK_RECORD
  5
1A
330
1
100
AcDbSymbolTableRecord
100
AcDbBlockTableRecord
  2
*Paper_Space
340
1D
  0
BLOCK_RECORD
  5
1C97
330
1
100
AcDbSymbolTableRecord
100
AcDbBlockTableRecord
  2
_Origin
340
0
  0
ENDTAB
  0
ENDSEC
  0
SECTION
  2
BLOCKS
  0
BLOCK
  5
31
330
1E
100
AcDbEntity
  8
0
100
AcDbBlockBegin
  2
*Model_Space
 70
     0
 10
0.0
 20
0.0
 30
0.0
  3
*Model_Space
  1

  0
ENDBLK
  5
32
330
1E
100
AcDbEntity
  8
0
100
AcDbBlockEnd
  0
BLOCK
  5
2F
330
1A
100
AcDbEntity
 67
     1
  8
0
100
AcDbBlockBegin
  2
*Paper_Space
 70
     0
 10
0.0
 20
0.0
 30
0.0
  3
*Paper_Space
  1

  0
ENDBLK
  5
30
330
1A
100
AcDbEntity
 67
     1
  8
0
100
AcDbBlockEnd
  0
BLOCK
  5
1C98
330
1C97
100
AcDbEntity
  8
0
100
AcDbBlockBegin
  2
_Origin
 70
     0
 10
0.0
 20
0.0
 30
0.0
  3
_Origin
  1

  0
CIRCLE
  5
1C99
330
1C97
100
AcDbEntity
  8
0
  6
ByBlock
 62
     0
370
    -2
100
AcDbCircle
 10
0.0
 20
0.0
 30
0.0
 40
0.5
  0
LINE
  5
1C9A
330
1C97
100
AcDbEntity
  8
0
  6
ByBlock
 62
     0
370
    -2
100
AcDbLine
 10
0.0
 20
0.0
 30
0.0
 11
-1.0
 21
0.0
 31
0.0
  0
ENDBLK
  5
1C9B
330
1C97
100
AcDbEntity
  8
0
100
AcDbBlockEnd
  0
ENDSEC
  0
SECTION
  2
ENTITIES
  0
TEXT
  5
61
330
1E
100
AcDbEntity
  8
MO
100
AcDbText
 10
328.5
 20
53.5
 30
0.0
 40
4.0
  1

  7
0
 72
     1
 11
328.5
 21
53.5
 31
0.0
100
AcDbText
  0
TEXT
  5
62
330
1E
100
AcDbEntity
  8
MO
100
AcDbText
 10
328.5
 20
47.0
 30
0.0
 40
4.0
  1

  7
0
 72
     1
 11
328.5
 21
47.0
 31
0.0
100
AcDbText
  0
TEXT
  5
63
330
1E
100
AcDbEntity
  8
MO
100
AcDbText
 10
328.5
 20
34.0
 30
0.0
 40
4.0
  1

  7
0
 72
     1
 11
328.5
 21
34.0
 31
0.0
100
AcDbText
  0
TEXT
  5
6E
330
1E
100
AcDbEntity
  8
MO
100
AcDbText
 10
328.204
 20
39.802
 30
0.0
 40
4.0
  1

  7
0
 72
     1
 11
328.204
 21
39.802
 31
0.0
100
AcDbText
  0
TEXT
  5
89
330
1E
100
AcDbEntity
  8
MO
100
AcDbText
 10
82.20200000000009
 20
51.07199999999998
 30
0.0
 40
3.0
  1

  7
0
100
AcDbText
  0
TEXT
  5
8B
330
1E
100
AcDbEntity
  8
MO
100
AcDbText
 10
110.859
 20
51.07199999999998
 30
0.0
 40
3.0
  1

  7
0
100
AcDbText
  0
TEXT
  5
8D
330
1E
100
AcDbEntity
  8
MO
100
AcDbText
 10
360.261
 20
19.91099999999999
 30
0.0
 40
7.0
  1

  7
0
 72
     4
 11
360.261
 21
19.91099999999999
 31
0.0
100
AcDbText
  0
TEXT
  5
91
330
1E
100
AcDbEntity
  8
MO
370
    40
100
AcDbText
 10
199.3044005524236
 20
247.6984004932194
 30
0.0
 40
10.8
  1
RCH型カートリッジヒーター
  7
0
100
AcDbText
  0
TEXT
  5
AC
330
1E
100
AcDbEntity
  8
MO
100
AcDbText
 10
103.1910000000001
 20
51.07199999999996
 30
0.0
 40
3.0
  1

  7
0
100
AcDbText
  0
TEXT
  5
1399
330
1E
100
AcDbEntity
  8
MO
100
AcDbText
 10
75.70200000000008
 20
51.07199999999998
 30
0.0
 40
3.0
  1

  7
0
100
AcDbText
  0
TEXT
  5
139C
330
1E
100
AcDbEntity
  8
MO
100
AcDbText
 10
110.859
 20
63.07199999999996
 30
0.0
 40
3.0
  1

  7
0
100
AcDbText
  0
TEXT
  5
139F
330
1E
100
AcDbEntity
  8
SC
100
AcDbText
 10
135.033
 20
64.98099999999995
 30
0.0
 40
2.0
  1

  7
0
100
AcDbText
  0
TEXT
  5
13A0
330
1E
100
AcDbEntity
  8
MO
100
AcDbText
 10
110.859
 20
45.07200000000001
 30
0.0
 40
3.0
  1

  7
0
100
AcDbText
  0
TEXT
  5
148E
330
1E
100
AcDbEntity
  8
MO
100
AcDbText
 10
355.5371320877766
 20
10.917
 30
0.0
 40
5.0
  1
株）
  7
0
 72
     1
 11
359.5371320877766
 21
10.917
 31
0.0
100
AcDbText
  0
TEXT
  5
1491
330
1E
100
AcDbEntity
  8
SC
100
AcDbText
 10
103.7564
 20
117.6597333333333
 30
0.0
 40
0.25
  1

100
AcDbText
  0
TEXT
  5
1492
330
1E
100
AcDbEntity
  8
MO
100
AcDbText
 10
366.81
 20
10.917
 30
0.0
 40
6.0
  1
愛西電熱
  7
0
 72
     1
 11
380.41
 21
10.917
 31
0.0
100
AcDbText
  0
MTEXT
  5
1758
330
1E
100
AcDbEntity
  8
SC
100
AcDbMText
 10
317.637
 20
21.871
 30
0.0
 40
2.5
 41
0.0
 71
     1
 72
     5
  1

  7
0
 73
     1
 44
1.0
1001
ACAD
1000
MTEXTBEGIN
1070
    73
1070
     1
1070
    44
1040
1.0
1070
    74
1070
     0
1000
MTEXTEND
  0
MTEXT
  5
178F
330
1E
100
AcDbEntity
  8
SC
100
AcDbMText
 10
254.8330417031702
 20
63.73835908787317
 30
0.0
 40
5.0
 41
0.0
 71
     1
 72
     5
  1
変更部がありましたら図面に書き込んで御利用下さい
  7
0
 73
     1
 44
1.0
1001
ACAD
1000
MTEXTBEGIN
1070
    73
1070
     1
1070
    44
1040
1.0
1070
    74
1070
     0
1000
MTEXTEND
  0
LINE
  5
17DC
330
1E
100
AcDbEntity
  8
0
100
AcDbLine
 10
14.99999999999995
 20
30.70499999999999
 30
0.0
 11
14.99999999999995
 21
50.70499999999999
 31
0.0
  0
LINE
  5
17DE
330
1E
100
AcDbEntity
  8
0
100
AcDbLine
 10
24.99999999999994
 20
50.70499999999999
 30
0.0
 11
24.99999999999994
 21
30.705
 31
0.0
  0
LINE
  5
1806
330
1E
100
AcDbEntity
  8
0
100
AcDbLine
 10
14.99999999999995
 20
50.70499999999999
 30
0.0
 11
49.99999999999994
 21
50.70499999999999
 31
0.0
  0
LINE
  5
1807
330
1E
100
AcDbEntity
  8
0
100
AcDbLine
 10
14.99999999999995
 20
40.70499999999999
 30
0.0
 11
49.99999999999994
 21
40.70499999999999
 31
0.0
  0
LINE
  5
1808
330
1E
100
AcDbEntity
  8
0
100
AcDbLine
 10
14.99999999999995
 20
30.70499999999999
 30
0.0
 11
49.99999999999994
 21
30.70499999999999
 31
0.0
  0
LINE
  5
180A
330
1E
100
AcDbEntity
  8
0
100
AcDbLine
 10
159.9999999999999
 20
50.70499999999999
 30
0.0
 11
281.0
 21
50.70499999999999
 31
0.0
  0
TEXT
  5
1814
330
1E
100
AcDbEntity
  8
MO
100
AcDbText
 10
19.18000058282744
 20
43.87999982484505
 30
0.0
 40
3.499999999999999
  1
A
  7
0
100
AcDbText
  0
TEXT
  5
181A
330
1E
100
AcDbEntity
  8
MO
100
AcDbText
 10
91.28012879570206
 20
43.7553613470516
 30
0.0
 40
3.499999999999999
  1
B
  7
0
100
AcDbText
  0
TEXT
  5
1822
330
1E
100
AcDbEntity
  8
MO
100
AcDbText
 10
27.79911516864903
 20
43.07893657328403
 30
0.0
 40
4.375
  1
パイプ径
  7
0
 72
     1
 11
37.7157818353157
 21
43.07893657328403
 31
0.0
100
AcDbText
  0
TEXT
  5
1829
330
1E
100
AcDbEntity
  8
MO
100
AcDbText
 10
105.2406545747246
 20
43.61824969380626
 30
0.0
 40
4.375
  1
長さ
  7
0
 72
     1
 11
109.6156545747246
 21
43.61824969380626
 31
0.0
100
AcDbText
  0
TEXT
  5
1844
330
1E
100
AcDbEntity
  8
MO
100
AcDbText
 10
18.85312879570205
 20
33.67336134705161
 30
0.0
 40
3.499999999999999
  1
C
  7
0
100
AcDbText
  0
TEXT
  5
1845
330
1E
100
AcDbEntity
  8
MO
100
AcDbText
 10
32.40350193661301
 20
33.50686474409736
 30
0.0
 40
4.375
  1
線長
  7
0
 72
     1
 11
36.92433526994634
 21
33.50686474409736
 31
0.0
100
AcDbText
  0
LINE
  5
1847
330
1E
100
AcDbEntity
  8
0
100
AcDbLine
 10
49.99999999999994
 20
50.70499999999999
 30
0.0
 11
49.99999999999994
 21
30.70499999999999
 31
0.0
  0
TEXT
  5
1856
330
1E
100
AcDbEntity
  8
MO
100
AcDbText
 10
226.088412769654
 20
33.66682550160349
 30
0.0
 40
4.375
  1
数量
  7
0
 72
     1
 11
230.7550794363206
 21
33.66682550160349
 31
0.0
100
AcDbText
  0
LINE
  5
1870
330
1E
100
AcDbEntity
  8
0
100
AcDbLine
 10
14.99999999999994
 20
30.705
 30
0.0
 11
159.9999999999999
 21
30.70499999999999
 31
0.0
  0
LINE
  5
1871
330
1E
100
AcDbEntity
  8
0
100
AcDbLine
 10
87.49999999999992
 20
50.70499999999999
 30
0.0
 11
87.49999999999992
 21
30.70499999999999
 31
0.0
  0
LINE
  5
1873
330
1E
100
AcDbEntity
  8
0
100
AcDbLine
 10
49.99999999999994
 20
50.70499999999999
 30
0.0
 11
159.9999999999999
 21
50.70499999999999
 31
0.0
  0
LINE
  5
1874
330
1E
100
AcDbEntity
  8
0
100
AcDbLine
 10
49.99999999999994
 20
40.70499999999999
 30
0.0
 11
87.49999999999992
 21
40.70499999999999
 31
0.0
  0
LINE
  5
1875
330
1E
100
AcDbEntity
  8
0
100
AcDbLine
 10
49.99999999999994
 20
30.70499999999999
 30
0.0
 11
159.9999999999999
 21
30.70499999999999
 31
0.0
  0
LINE
  5
1884
330
1E
100
AcDbEntity
  8
0
100
AcDbLine
 10
122.4999999999999
 20
40.705
 30
0.0
 11
159.9999999999999
 21
40.705
 31
0.0
  0
LINE
  5
1888
330
1E
100
AcDbEntity
  8
0
100
AcDbLine
 10
14.99999999999994
 20
30.705
 30
0.0
 11
159.9999999999999
 21
30.70499999999999
 31
0.0
  0
LINE
  5
1889
330
1E
100
AcDbEntity
  8
0
100
AcDbLine
 10
17.99999999999994
 20
20.705
 30
0.0
 11
283.2259999999999
 21
20.70499999999999
 31
0.0
  0
LINE
  5
188A
330
1E
100
AcDbEntity
  8
0
100
AcDbLine
 10
17.99999999999994
 20
10.705
 30
0.0
 11
283.2259999999999
 21
10.70499999999998
 31
0.0
  0
TEXT
  5
1892
330
1E
100
AcDbEntity
  8
MO
100
AcDbText
 10
18.0825030365616
 20
28.37468907764135
 30
0.0
 40
2.799999999999999
  1

  7
0
100
AcDbText
  0
TEXT
  5
1893
330
1E
100
AcDbEntity
  8
MO
100
AcDbText
 10
18.31122710757998
 20
21.78303665633006
 30
0.0
 40
3.5
  1
その他詳細：
  7
0
 72
     1
 11
29.86122710757998
 21
21.78303665633006
 31
0.0
100
AcDbText
  0
LINE
  5
18A2
330
1E
100
AcDbEntity
  8
0
100
AcDbLine
 10
87.49999999999992
 20
40.70499999999999
 30
0.0
 11
159.9999999999999
 21
40.70499999999999
 31
0.0
  0
TEXT
  5
18A3
330
1E
100
AcDbEntity
  8
MO
100
AcDbText
 10
226.322471877816
 20
43.55161148403567
 30
0.0
 40
4.375
  1
容量
  7
0
 72
     1
 11
230.9891385444827
 21
43.55161148403567
 31
0.0
100
AcDbText
  0
TEXT
  5
18A5
330
1E
100
AcDbEntity
  8
MO
100
AcDbText
 10
166.1966333931626
 20
43.47752605931685
 30
0.0
 40
4.375
  1
電圧
  7
0
 72
     1
 11
170.8633000598292
 21
43.47752605931685
 31
0.0
100
AcDbText
  0
LINE
  5
18A9
330
1E
100
AcDbEntity
  8
0
100
AcDbLine
 10
159.9999999999999
 20
50.70499999999999
 30
0.0
 11
159.9999999999999
 21
30.70499999999999
 31
0.0
  0
LINE
  5
18AA
330
1E
100
AcDbEntity
  8
0
100
AcDbLine
 10
97.49999999999994
 20
50.70499999999999
 30
0.0
 11
97.49999999999994
 21
30.70499999999999
 31
0.0
  0
LINE
  5
18AB
330
1E
100
AcDbEntity
  8
0
100
AcDbLine
 10
122.4999999999999
 20
50.70499999999999
 30
0.0
 11
122.4999999999999
 21
30.70499999999999
 31
0.0
  0
TEXT
  5
18B4
330
1E
100
AcDbEntity
  8
MO
100
AcDbText
 10
334.7498393399925
 20
3.380574230302642
 30
0.0
 40
3.5
  1
AISEI  DENNETSU CO., LTD
  7
0
100
AcDbText
  0
TEXT
  5
18BD
330
1E
100
AcDbEntity
  8
MO
100
AcDbText
 10
397.7133211714158
 20
11.06163477656134
 30
0.0
 40
5.0
  1
行
  7
0
 72
     1
 11
400.046654504749
 21
11.06163477656134
 31
0.0
100
AcDbText
  0
TEXT
  5
18C6
330
1E
100
AcDbEntity
  8
MO
100
AcDbText
 10
80.18549947051658
 20
43.19699993280605
 30
0.0
 40
4.375
  1
φ
  7
0
 72
     1
 11
82.37299947051658
 21
43.19699993280605
 31
0.0
100
AcDbText
  0
TEXT
  5
18CC
330
1E
100
AcDbEntity
  8
MO
100
AcDbText
 10
150.2635240194453
 20
42.82492724811003
 30
0.0
 40
3.0625
  1
mm
  7
0
 72
     1
 11
154.055190686112
 21
42.82492724811003
 31
0.0
100
AcDbText
  0
TEXT
  5
18D2
330
1E
100
AcDbEntity
  8
MO
100
AcDbText
 10
212.9983333333334
 20
42.769
 30
0.0
 40
4.375
  1
V
  7
0
 72
     1
 11
214.665
 21
42.769
 31
0.0
100
AcDbText
  0
TEXT
  5
18DE
330
1E
100
AcDbEntity
  8
MO
100
AcDbText
 10
273.907542192391
 20
33.68694780040364
 30
0.0
 40
4.375
  1
本
  7
0
 72
     1
 11
275.9492088590577
 21
33.68694780040364
 31
0.0
100
AcDbText
  0
TEXT
  5
18E4
330
1E
100
AcDbEntity
  8
MO
100
AcDbText
 10
68.9897995764133
 20
33.91959994624484
 30
0.0
 40
3.5
  1

  7
0
 72
     1
 11
68.9897995764133
 21
33.91959994624484
 31
0.0
100
AcDbText
  0
TEXT
  5
18EB
330
1E
100
AcDbEntity
  8
MO
100
AcDbText
 10
17.62914196000259
 20
55.01909017515878
 30
0.0
 40
4.550000000000001
  1
※　下記空欄に記入し、FAXしてください
  7
0
100
AcDbText
  0
LINE
  5
18ED
330
1E
100
AcDbEntity
  8
0
100
AcDbLine
 10
3.193615971125439
 20
267.713
 30
0.0
 11
128.2526159711254
 21
267.713
 31
0.0
  0
LINE
  5
18EE
330
1E
100
AcDbEntity
  8
0
100
AcDbLine
 10
3.193615971125439
 20
255.713
 30
0.0
 11
128.2526159711254
 21
255.7129999999999
 31
0.0
  0
LINE
  5
18EF
330
1E
100
AcDbEntity
  8
0
100
AcDbLine
 10
3.193615971125424
 20
243.713
 30
0.0
 11
128.2526159711254
 21
243.7129999999999
 31
0.0
  0
LINE
  5
18F0
330
1E
100
AcDbEntity
  8
0
100
AcDbLine
 10
3.193615971125424
 20
231.713
 30
0.0
 11
128.2526159711254
 21
231.7129999999999
 31
0.0
  0
TEXT
  5
18F7
330
1E
100
AcDbEntity
  8
MO
100
AcDbText
 10
5.047000000000002
 20
269.7195108252091
 30
0.0
 40
4.375
  1
貴社名：
  7
0
 72
     1
 11
14.08866666666667
 21
269.7195108252091
 31
0.0
100
AcDbText
  0
TEXT
  5
18FF
330
1E
100
AcDbEntity
  8
MO
100
AcDbText
 10
4.762445293775542
 20
259.6404968976157
 30
0.0
 40
4.375
  1
部署・担当者名：
  7
0
 72
     1
 11
24.30411196044222
 21
259.6404968976157
 31
0.0
100
AcDbText
  0
TEXT
  5
190B
330
1E
100
AcDbEntity
  8
MO
100
AcDbText
 10
4.244409610399635
 20
235.1743512486338
 30
0.0
 40
4.375
  1
御連絡先 FAX：
  7
0
 72
     1
 11
23.4735762770663
 21
235.1743512486338
 31
0.0
100
AcDbText
  0
TEXT
  5
1918
330
1E
100
AcDbEntity
  8
MO
100
AcDbText
 10
4.271947869785471
 20
247.7453335828736
 30
0.0
 40
4.375
  1
御連絡先 TEL：
  7
0
 72
     1
 11
22.87611453645213
 21
247.7453335828736
 31
0.0
100
AcDbText
  0
LINE
  5
1923
330
1E
100
AcDbEntity
  8
0
370
    40
100
AcDbLine
 10
315.0881625155811
 20
37.35735115744029
 30
0.0
 11
393.0881625155811
 21
37.35735115744029
 31
0.0
  0
LINE
  5
1924
330
1E
100
AcDbEntity
  8
0
370
    40
100
AcDbLine
 10
315.0881625155811
 20
34.7573511574403
 30
0.0
 11
399.5881625155811
 21
34.7573511574403
 31
0.0
  0
LINE
  5
1925
330
1E
100
AcDbEntity
  8
0
370
    40
100
AcDbLine
 10
393.0881625155811
 20
37.35735115744029
 30
0.0
 11
393.0881625155811
 21
39.95735115744029
 31
0.0
  0
LINE
  5
1926
330
1E
100
AcDbEntity
  8
0
370
    40
100
AcDbLine
 10
393.0881625155811
 20
39.95735115744029
 30
0.0
 11
399.5881625155811
 21
34.7573511574403
 31
0.0
  0
LINE
  5
1927
330
1E
100
AcDbEntity
  8
0
370
    40
100
AcDbLine
 10
315.0881625155811
 20
37.35735115744029
 30
0.0
 11
315.0881625155811
 21
34.7573511574403
 31
0.0
  0
TEXT
  5
192E
330
1E
100
AcDbEntity
  8
MO
370
    40
100
AcDbText
 10
324.6798300677355
 20
38.84484239326316
 30
0.0
 40
7.800000000000001
  1
FAX送信方向
  7
0
 72
     1
 11
353.2426872105926
 21
38.84484239326316
 31
0.0
100
AcDbText
  0
TEXT
  5
1943
330
1E
100
AcDbEntity
  8
0
370
    53
100
AcDbText
 10
86.07465571428523
 20
284.1842971226886
 30
0.0
 40
10.0
  1
愛西電熱　見積依頼書・注文書　フォーム
  7
0
100
AcDbText
  0
TEXT
  5
195E
330
1E
100
AcDbEntity
  8
MO
370
    40
100
AcDbText
 10
313.1463329590498
 20
24.83965109775832
 30
0.0
 40
7.800000000000001
  1
0568-25-2241
  7
0
 72
     1
 11
357.1606186733355
 21
24.83965109775832
 31
0.0
100
AcDbText
  0
LINE
  5
19C2
330
1E
100
AcDbEntity
  8
SC
370
    40
100
AcDbLine
 10
195.036
 20
245.664
 30
0.0
 11
378.773
 21
245.664
 31
0.0
  0
LINE
  5
19F9
330
1E
100
AcDbEntity
  8
0
100
AcDbLine
 10
160.9999999999999
 20
50.70499999999999
 30
0.0
 11
160.9999999999999
 21
30.70499999999999
 31
0.0
  0
LINE
  5
1A00
330
1E
100
AcDbEntity
  8
0
100
AcDbLine
 10
159.9999999999999
 20
40.705
 30
0.0
 11
280.9999999999999
 21
40.70499999999983
 31
0.0
  0
LINE
  5
1A06
330
1E
100
AcDbEntity
  8
0
100
AcDbLine
 10
159.9999999999999
 20
30.70499999999999
 30
0.0
 11
280.9999999999999
 21
30.70499999999997
 31
0.0
  0
LINE
  5
1A08
330
1E
100
AcDbEntity
  8
0
100
AcDbLine
 10
180.9999999999999
 20
50.70499999999999
 30
0.0
 11
180.9999999999999
 21
30.70499999999999
 31
0.0
  0
LINE
  5
1A09
330
1E
100
AcDbEntity
  8
0
100
AcDbLine
 10
220.9999999999999
 20
50.70499999999999
 30
0.0
 11
220.9999999999999
 21
30.70499999999998
 31
0.0
  0
LINE
  5
1A12
330
1E
100
AcDbEntity
  8
0
100
AcDbLine
 10
281.0
 20
50.70499999999999
 30
0.0
 11
280.9999999999999
 21
30.70499999999997
 31
0.0
  0
LINE
  5
1A13
330
1E
100
AcDbEntity
  8
0
100
AcDbLine
 10
241.0
 20
50.70499999999999
 30
0.0
 11
241.0
 21
30.70499999999999
 31
0.0
  0
LINE
  5
1A14
330
1E
100
AcDbEntity
  8
0
100
AcDbLine
 10
220.9999999999999
 20
50.70499999999999
 30
0.0
 11
220.9999999999999
 21
30.70499999999999
 31
0.0
  0
LWPOLYLINE
  5
1E44
330
1E
100
AcDbEntity
  8
SC
100
AcDbPolyline
 90
        3
 70
     0
 43
0.0
 10
286.6900413780218
 20
163.870037948785
 10
296.6232589254633
 20
192.2950000478688
 10
348.537
 20
192.2950000478688
1001
ACAD
1000
DSTYLE
1002
{
1070
   147
1040
0.09
1070
    77
1070
     0
1002
}
  0
SOLID
  5
1E45
330
1E
100
AcDbEntity
  8
SC
100
AcDbTrace
 10
287.0047143615078
 20
163.7600742066919
 30
0.0
 11
286.0302589254633
 21
161.9820000478688
 31
0.0
 12
286.3753683945357
 22
163.9800016908781
 32
0.0
 13
286.3753683945357
 23
163.9800016908781
 33
0.0
1001
ACAD
1000
DSTYLE
1002
{
1070
   147
1040
0.09
1070
    77
1070
     0
1002
}
  0
LINE
  5
1E48
330
1E
100
AcDbEntity
  8
SA
100
AcDbLine
 10
377.0422589254632
 20
153.3329916690515
 30
0.0
 11
377.0422589254632
 21
151.3329916690515
 31
0.0
  0
LINE
  5
1E49
330
1E
100
AcDbEntity
  8
SA
100
AcDbLine
 10
377.0422589254632
 20
162.3329916690515
 30
0.0
 11
377.0422589254632
 21
160.3329916690515
 31
0.0
  0
LINE
  5
1E4A
330
1E
100
AcDbEntity
  8
SC
100
AcDbLine
 10
377.0422589254632
 20
161.3329916690515
 30
0.0
 11
383.0422589254632
 21
161.3329916690515
 31
0.0
  0
LINE
  5
1E4B
330
1E
100
AcDbEntity
  8
SC
100
AcDbLine
 10
377.0422589254632
 20
161.6329916690515
 30
0.0
 11
383.0422589254632
 21
161.6329916690515
 31
0.0
  0
LINE
  5
1E4C
330
1E
100
AcDbEntity
  8
SC
100
AcDbLine
 10
377.0422589254632
 20
161.0329916690515
 30
0.0
 11
383.0422589254632
 21
161.0329916690515
 31
0.0
  0
LINE
  5
1E4D
330
1E
100
AcDbEntity
  8
SC
100
AcDbLine
 10
377.0422589254632
 20
160.7329916690515
 30
0.0
 11
383.0422589254632
 21
160.7329916690515
 31
0.0
  0
LINE
  5
1E4E
330
1E
100
AcDbEntity
  8
SC
100
AcDbLine
 10
377.0422589254632
 20
161.9329916690515
 30
0.0
 11
383.0422589254632
 21
161.9329916690515
 31
0.0
  0
LINE
  5
1E4F
330
1E
100
AcDbEntity
  8
SC
100
AcDbLine
 10
377.0422589254632
 20
162.2329916690516
 30
0.0
 11
383.0422589254632
 21
162.2329916690516
 31
0.0
  0
LINE
  5
1E50
330
1E
100
AcDbEntity
  8
SC
100
AcDbLine
 10
377.0422589254632
 20
160.4329916690515
 30
0.0
 11
383.0422589254632
 21
160.4329916690515
 31
0.0
  0
LINE
  5
1E51
330
1E
100
AcDbEntity
  8
SC
100
AcDbLine
 10
377.0422589254632
 20
151.4329916690515
 30
0.0
 11
383.0422589254632
 21
151.4329916690515
 31
0.0
  0
LINE
  5
1E52
330
1E
100
AcDbEntity
  8
SC
100
AcDbLine
 10
377.0422589254632
 20
153.2329916690516
 30
0.0
 11
383.0422589254632
 21
153.2329916690516
 31
0.0
  0
LINE
  5
1E53
330
1E
100
AcDbEntity
  8
SC
100
AcDbLine
 10
377.0422589254632
 20
152.9329916690516
 30
0.0
 11
383.0422589254632
 21
152.9329916690516
 31
0.0
  0
LINE
  5
1E54
330
1E
100
AcDbEntity
  8
SC
100
AcDbLine
 10
377.0422589254632
 20
151.7329916690515
 30
0.0
 11
383.0422589254632
 21
151.7329916690515
 31
0.0
  0
LINE
  5
1E55
330
1E
100
AcDbEntity
  8
SC
100
AcDbLine
 10
377.0422589254632
 20
152.0329916690515
 30
0.0
 11
383.0422589254632
 21
152.0329916690515
 31
0.0
  0
LINE
  5
1E56
330
1E
100
AcDbEntity
  8
SC
100
AcDbLine
 10
377.0422589254632
 20
152.6329916690515
 30
0.0
 11
383.0422589254632
 21
152.6329916690515
 31
0.0
  0
LINE
  5
1E57
330
1E
100
AcDbEntity
  8
SC
100
AcDbLine
 10
377.0422589254632
 20
152.3329916690515
 30
0.0
 11
383.0422589254632
 21
152.3329916690515
 31
0.0
  0
LINE
  5
1E58
330
1E
100
AcDbEntity
  8
SA
100
AcDbLine
 10
130.4791064944514
 20
148.3450000478688
 30
0.0
 11
126.3172589254632
 21
148.3450000478688
 31
0.0
  0
LINE
  5
1E59
330
1E
100
AcDbEntity
  8
SA
100
AcDbLine
 10
145.3112449431812
 20
164.3450000478688
 30
0.0
 11
222.0422589254633
 21
164.3450000478688
 31
0.0
  0
LINE
  5
1E5A
330
1E
100
AcDbEntity
  8
SA
100
AcDbLine
 10
149.5852589254632
 20
170.2340000478688
 30
0.0
 11
129.1862589254632
 21
142.1270000478688
 31
0.0
  0
LINE
  5
1E5B
330
1E
100
AcDbEntity
  8
SA
100
AcDbLine
 10
146.3422589254632
 20
170.2540000478688
 30
0.0
 11
125.9552589254632
 21
142.0970000478688
 31
0.0
  0
LINE
  5
1E5C
330
1E
100
AcDbEntity
  8
SC
100
AcDbLine
 10
210.2488906620835
 20
159.0550781657342
 30
0.0
 11
210.0552589254632
 21
150.3450000478688
 31
0.0
  0
LINE
  5
1E5D
330
1E
100
AcDbEntity
  8
SC
100
AcDbLine
 10
209.2581036862674
 20
159.4695048591281
 30
0.0
 11
209.0552589254632
 21
150.3450000478688
 31
0.0
  0
LINE
  5
1E5E
330
1E
100
AcDbEntity
  8
SC
100
AcDbLine
 10
208.269895321423
 20
159.9999244336049
 30
0.0
 11
208.0552589254632
 21
150.3450000478688
 31
0.0
  0
LINE
  5
1E5F
330
1E
100
AcDbEntity
  8
SC
100
AcDbLine
 10
207.2847740631279
 20
160.6692103926505
 30
0.0
 11
207.0552589254632
 21
150.3450000478688
 31
0.0
  0
LINE
  5
1E60
330
1E
100
AcDbEntity
  8
SC
100
AcDbLine
 10
206.3032275759028
 20
161.499299202587
 30
0.0
 11
206.0552589254632
 21
150.3450000478688
 31
0.0
  0
LINE
  5
1E61
330
1E
100
AcDbEntity
  8
SC
100
AcDbLine
 10
205.3220281562325
 20
162.3450000478688
 30
0.0
 11
205.0552589254632
 21
150.3450000478688
 31
0.0
  0
LINE
  5
1E62
330
1E
100
AcDbEntity
  8
SC
100
AcDbLine
 10
170.2434742815712
 20
158.8114347516846
 30
0.0
 11
170.2328954100606
 21
158.335568559169
 31
0.0
  0
LINE
  5
1E63
330
1E
100
AcDbEntity
  8
SC
100
AcDbLine
 10
171.2626297316805
 20
159.6730985974364
 30
0.0
 11
171.2160393878848
 21
157.5773391879411
 31
0.0
  0
LINE
  5
1E64
330
1E
100
AcDbEntity
  8
SC
100
AcDbLine
 10
172.2737767910041
 20
160.1745234112991
 30
0.0
 11
172.2073178059236
 21
157.1850188921077
 31
0.0
  0
LINE
  5
1E65
330
1E
100
AcDbEntity
  8
SC
100
AcDbLine
 10
173.2830487533328
 20
160.5916013015154
 30
0.0
 11
173.2003873471184
 21
156.8732681500096
 31
0.0
  0
LINE
  5
1E66
330
1E
100
AcDbEntity
  8
SC
100
AcDbLine
 10
174.2913547465635
 20
160.9652272945934
 30
0.0
 11
174.1943093281499
 21
156.5998624524569
 31
0.0
  0
LINE
  5
1E67
330
1E
100
AcDbEntity
  8
SC
100
AcDbLine
 10
175.2990552211728
 20
161.3116154258079
 30
0.0
 11
175.1887115757031
 21
156.3480604392832
 31
0.0
  0
LINE
  5
1E68
330
1E
100
AcDbEntity
  8
SC
100
AcDbLine
 10
176.3063376403245
 20
161.639198294225
 30
0.0
 11
176.1833992448323
 21
156.1090974589306
 31
0.0
  0
LINE
  5
1E69
330
1E
100
AcDbEntity
  8
SC
100
AcDbLine
 10
177.3133148677183
 20
161.9530528136741
 30
0.0
 11
177.1782532434744
 21
155.8776164289979
 31
0.0
  0
LINE
  5
1E6A
330
1E
100
AcDbEntity
  8
SC
100
AcDbLine
 10
178.3200616394899
 20
162.2565408172374
 30
0.0
 11
178.173192681033
 21
155.6499786721184
 31
0.0
  0
LINE
  5
1E6B
330
1E
100
AcDbEntity
  8
SC
100
AcDbLine
 10
179.3220281562325
 20
162.3450000478688
 30
0.0
 11
179.1681579798508
 21
155.4235042244722
 31
0.0
  0
LINE
  5
1E6C
330
1E
100
AcDbEntity
  8
SC
100
AcDbLine
 10
180.3220281562325
 20
162.3450000478688
 30
0.0
 11
180.1631022086992
 21
155.1960819927403
 31
0.0
  0
LINE
  5
1E6D
330
1E
100
AcDbEntity
  8
SC
100
AcDbLine
 10
181.3220281562325
 20
162.3450000478688
 30
0.0
 11
181.1579861685417
 21
154.9659486984563
 31
0.0
  0
LINE
  5
1E6E
330
1E
100
AcDbEntity
  8
SC
100
AcDbLine
 10
182.3220281562325
 20
162.3450000478688
 30
0.0
 11
182.1527753608201
 21
154.7315525033711
 31
0.0
  0
LINE
  5
1E6F
330
1E
100
AcDbEntity
  8
SC
100
AcDbLine
 10
183.3220281562325
 20
162.3450000478688
 30
0.0
 11
183.1474379619056
 21
154.4914618947569
 31
0.0
  0
LINE
  5
1E70
330
1E
100
AcDbEntity
  8
SC
100
AcDbLine
 10
184.3220281562325
 20
162.3450000478688
 30
0.0
 11
184.1419433524485
 21
154.2442995316399
 31
0.0
  0
LINE
  5
1E71
330
1E
100
AcDbEntity
  8
SC
100
AcDbLine
 10
185.3220281562325
 20
162.3450000478688
 30
0.0
 11
185.1362609475338
 21
153.9886896219764
 31
0.0
  0
LINE
  5
1E72
330
1E
100
AcDbEntity
  8
SC
100
AcDbLine
 10
186.3220281562325
 20
162.3450000478688
 30
0.0
 11
186.1303591692438
 21
153.7232117058193
 31
0.0
  0
LINE
  5
1E73
330
1E
100
AcDbEntity
  8
SC
100
AcDbLine
 10
187.3220281562325
 20
162.3450000478688
 30
0.0
 11
187.1242044489369
 21
153.4463557750578
 31
0.0
  0
LINE
  5
1E74
330
1E
100
AcDbEntity
  8
SC
100
AcDbLine
 10
188.3220281562325
 20
162.3450000478688
 30
0.0
 11
188.117760164097
 21
153.1564744500811
 31
0.0
  0
LINE
  5
1E75
330
1E
100
AcDbEntity
  8
SC
100
AcDbLine
 10
189.3220281562325
 20
162.3450000478688
 30
0.0
 11
189.1109854127002
 21
152.8517278474606
 31
0.0
  0
LINE
  5
1E76
330
1E
100
AcDbEntity
  8
SC
100
AcDbLine
 10
190.3220281562325
 20
162.3450000478688
 30
0.0
 11
190.1038335080295
 21
152.5300158726514
 31
0.0
  0
LINE
  5
1E77
330
1E
100
AcDbEntity
  8
SC
100
AcDbLine
 10
191.3220281562325
 20
162.3450000478688
 30
0.0
 11
191.0962500342858
 21
152.18889075615
 31
0.0
  0
LINE
  5
1E78
330
1E
100
AcDbEntity
  8
SC
100
AcDbLine
 10
192.3220281562325
 20
162.3450000478688
 30
0.0
 11
192.0881702262364
 21
151.825439182993
 31
0.0
  0
LINE
  5
1E79
330
1E
100
AcDbEntity
  8
SC
100
AcDbLine
 10
193.3220281562325
 20
162.3450000478688
 30
0.0
 11
193.0795152996088
 21
151.436117223962
 31
0.0
  0
LINE
  5
1E7A
330
1E
100
AcDbEntity
  8
SC
100
AcDbLine
 10
194.3220281562325
 20
162.3450000478688
 30
0.0
 11
194.0701871120106
 21
151.0165101693796
 31
0.0
  0
LINE
  5
1E7B
330
1E
100
AcDbEntity
  8
SC
100
AcDbLine
 10
195.3220281562325
 20
162.3450000478688
 30
0.0
 11
195.0552589254632
 21
150.3450000478688
 31
0.0
  0
LINE
  5
1E7C
330
1E
100
AcDbEntity
  8
SC
100
AcDbLine
 10
196.3220281562325
 20
162.3450000478688
 30
0.0
 11
196.0552589254632
 21
150.3450000478688
 31
0.0
  0
LINE
  5
1E7D
330
1E
100
AcDbEntity
  8
SC
100
AcDbLine
 10
197.3220281562325
 20
162.3450000478688
 30
0.0
 11
197.0552589254632
 21
150.3450000478688
 31
0.0
  0
LINE
  5
1E7E
330
1E
100
AcDbEntity
  8
SC
100
AcDbLine
 10
198.3220281562325
 20
162.3450000478688
 30
0.0
 11
198.0552589254632
 21
150.3450000478688
 31
0.0
  0
LINE
  5
1E7F
330
1E
100
AcDbEntity
  8
SC
100
AcDbLine
 10
199.3220281562325
 20
162.3450000478688
 30
0.0
 11
199.0552589254632
 21
150.3450000478688
 31
0.0
  0
LINE
  5
1E80
330
1E
100
AcDbEntity
  8
SC
100
AcDbLine
 10
200.3220281562325
 20
162.3450000478688
 30
0.0
 11
200.0552589254632
 21
150.3450000478688
 31
0.0
  0
LINE
  5
1E81
330
1E
100
AcDbEntity
  8
SC
100
AcDbLine
 10
201.3220281562325
 20
162.3450000478688
 30
0.0
 11
201.0552589254632
 21
150.3450000478688
 31
0.0
  0
LINE
  5
1E82
330
1E
100
AcDbEntity
  8
SC
100
AcDbLine
 10
202.3220281562325
 20
162.3450000478688
 30
0.0
 11
202.0552589254632
 21
150.3450000478688
 31
0.0
  0
LINE
  5
1E83
330
1E
100
AcDbEntity
  8
SC
100
AcDbLine
 10
203.3220281562325
 20
162.3450000478688
 30
0.0
 11
203.0552589254632
 21
150.3450000478688
 31
0.0
  0
LINE
  5
1E84
330
1E
100
AcDbEntity
  8
SC
100
AcDbLine
 10
204.3220281562325
 20
162.3450000478688
 30
0.0
 11
204.0552589254632
 21
150.3450000478688
 31
0.0
  0
LINE
  5
1E85
330
1E
100
AcDbEntity
  8
SB
100
AcDbLine
 10
178.6188608258657
 20
162.3450000478688
 30
0.0
 11
205.4664229583333
 21
162.3450000478688
 31
0.0
  0
LINE
  5
1E86
330
1E
100
AcDbEntity
  8
SB
100
AcDbLine
 10
216.601365029998
 20
150.3450000478688
 30
0.0
 11
195.4999156805926
 21
150.3450000478688
 31
0.0
  0
LINE
  5
1E87
330
1E
100
AcDbEntity
  8
SB
100
AcDbLine
 10
215.2901323962275
 20
149.3450000478688
 30
0.0
 11
197.3002554496838
 21
149.3450000478688
 31
0.0
  0
LINE
  5
1E88
330
1E
100
AcDbEntity
  8
SB
100
AcDbLine
 10
182.123454277505
 20
163.3450000478688
 30
0.0
 11
204.5966677934618
 21
163.3450000478688
 31
0.0
  0
LINE
  5
1E89
330
1E
100
AcDbEntity
  8
SC
 48
0.2
100
AcDbLine
 10
207.7603356542033
 20
160.3270000478688
 30
0.0
 11
207.0222589254633
 21
160.3270000478688
 31
0.0
  0
LINE
  5
1E8A
330
1E
100
AcDbEntity
  8
SC
 48
0.2
100
AcDbLine
 10
213.1017541733392
 20
158.3270000478688
 30
0.0
 11
207.0222589254633
 21
158.3270000478688
 31
0.0
  0
ARC
  5
1E8B
330
1E
100
AcDbEntity
  8
SC
 48
0.2
100
AcDbCircle
 10
207.0222589254633
 20
159.3270000478688
 30
0.0
 40
1.0
100
AcDbArc
 50
90.0
 51
270.0
  0
ARC
  5
1E8C
330
1E
100
AcDbEntity
  8
SC
 48
0.2
100
AcDbCircle
 10
207.0422589254633
 20
153.3450000478688
 30
0.0
 40
1.0
100
AcDbArc
 50
90.0
 51
270.0
  0
LINE
  5
1E8D
330
1E
100
AcDbEntity
  8
SC
 48
0.2
100
AcDbLine
 10
217.0422589254633
 20
152.3450000478688
 30
0.0
 11
207.0422589254633
 21
152.3450000478688
 31
0.0
  0
LINE
  5
1E8E
330
1E
100
AcDbEntity
  8
SC
 48
0.2
100
AcDbLine
 10
217.0422589254633
 20
154.3450000478688
 30
0.0
 11
207.0422589254633
 21
154.3450000478688
 31
0.0
  0
LINE
  5
1E8F
330
1E
100
AcDbEntity
  8
SC
100
AcDbLine
 10
217.0422589254633
 20
157.7327838131805
 30
0.0
 11
217.0422589254633
 21
150.6984471949759
 31
0.0
  0
SPLINE
  5
1E90
330
1E
100
AcDbEntity
  8
SB
100
AcDbSpline
210
0.0
220
0.0
230
1.0
 70
     8
 71
     3
 72
    10
 73
     6
 74
     0
 42
0.0000000001
 43
0.0000000001
 40
0.0
 40
0.0
 40
0.0
 40
0.0
 40
9.38480394041346
 40
19.87991642194506
 40
26.78184546307163
 40
26.78184546307163
 40
26.78184546307163
 40
26.78184546307163
 10
203.7862589254632
 20
164.3450000478688
 30
0.0
 10
205.6178154735934
 20
162.0583593532053
 30
0.0
 10
209.4976185392814
 20
157.2145473582448
 30
0.0
 10
226.9254567850059
 20
158.160348405773
 30
0.0
 10
215.7988482267967
 20
149.6103276878976
 30
0.0
 10
213.8571882958077
 20
148.3450000478688
 30
0.0
  0
SPLINE
  5
1E91
330
1E
100
AcDbEntity
  8
SB
100
AcDbSpline
210
0.0
220
0.0
230
1.0
 70
     8
 71
     3
 72
    10
 73
     6
 74
     4
 42
0.0000000001
 43
0.0000000001
 44
0.0000000001
 13
0.0
 23
-1.0
 33
0.0
 40
0.0
 40
0.0
 40
0.0
 40
0.0
 40
16.47429649484307
 40
44.70168477289667
 40
46.36146066138281
 40
46.36146066138281
 40
46.36146066138281
 40
46.36146066138281
 10
185.7602589254632
 20
164.3450000478688
 30
0.0
 10
178.3716513455004
 20
162.3252659044419
 30
0.0
 10
158.3232561346021
 20
156.844878985778
 30
0.0
 10
188.3010284793739
 20
155.1714630220411
 30
0.0
 10
198.0282589254633
 20
148.8982586773642
 30
0.0
 10
198.0282589254633
 20
148.3450000478688
 30
0.0
 11
185.7602589254632
 21
164.3450000478688
 31
0.0
 11
170.2432589254633
 21
158.8110000478688
 31
0.0
 11
196.9182589254632
 21
149.5790000478688
 31
0.0
 11
198.0282589254633
 21
148.3450000478688
 31
0.0
  0
LINE
  5
1E92
330
1E
100
AcDbEntity
  8
SA
100
AcDbLine
 10
96.31725892546327
 20
148.3450000478688
 30
0.0
 11
126.3172589254632
 21
148.3450000478688
 31
0.0
  0
LINE
  5
1E93
330
1E
100
AcDbEntity
  8
SA
100
AcDbLine
 10
96.31725892546327
 20
164.3450000478688
 30
0.0
 11
126.3172589254632
 21
164.3450000478688
 31
0.0
  0
LINE
  5
1E94
330
1E
100
AcDbEntity
  8
SA
100
AcDbLine
 10
222.0422589254633
 20
148.3450000478688
 30
0.0
 11
133.6990486931368
 21
148.3450000478688
 31
0.0
  0
LINE
  5
1E95
330
1E
100
AcDbEntity
  8
SA
100
AcDbLine
 10
222.0422589254633
 20
164.3450000478688
 30
0.0
 11
222.0422589254633
 21
148.3450000478688
 31
0.0
  0
LINE
  5
1E96
330
1E
100
AcDbEntity
  8
SA
100
AcDbLine
 10
126.3172589254632
 20
164.3450000478688
 30
0.0
 11
142.0638633932687
 21
164.3450000478688
 31
0.0
  0
LINE
  5
1E97
330
1E
100
AcDbEntity
  8
SA
100
AcDbLine
 10
96.31725892546327
 20
164.3450000478688
 30
0.0
 11
81.31725892546326
 21
164.3450000478688
 31
0.0
  0
LINE
  5
1E98
330
1E
100
AcDbEntity
  8
SA
100
AcDbLine
 10
96.31725892546327
 20
148.3450000478688
 30
0.0
 11
81.31725892546326
 21
148.3450000478688
 31
0.0
  0
LINE
  5
1E99
330
1E
100
AcDbEntity
  8
SA
100
AcDbLine
 10
222.0422589254633
 20
164.3450000478688
 30
0.0
 11
222.0422589254633
 21
162.3450000478688
 31
0.0
  0
LINE
  5
1E9A
330
1E
100
AcDbEntity
  8
SA
100
AcDbLine
 10
275.3052589254632
 20
162.8329916690515
 30
0.0
 11
297.0422589254631
 21
162.8329916690515
 31
0.0
  0
LINE
  5
1E9B
330
1E
100
AcDbEntity
  8
SA
100
AcDbLine
 10
297.0422589254631
 20
162.8329916690515
 30
0.0
 11
297.0422589254631
 21
159.8329916690515
 31
0.0
  0
LINE
  5
1E9C
330
1E
100
AcDbEntity
  8
SA
100
AcDbLine
 10
297.0422589254631
 20
159.8329916690515
 30
0.0
 11
275.3052589254632
 21
159.8329916690515
 31
0.0
  0
LINE
  5
1E9D
330
1E
100
AcDbEntity
  8
SA
100
AcDbLine
 10
222.0422589254633
 20
148.3450000478688
 30
0.0
 11
222.0422589254633
 21
150.3450000478688
 31
0.0
  0
LINE
  5
1E9E
330
1E
100
AcDbEntity
  8
SA
100
AcDbLine
 10
275.3052589254633
 20
150.8329916690515
 30
0.0
 11
297.0422589254631
 21
150.8329916690515
 31
0.0
  0
LINE
  5
1E9F
330
1E
100
AcDbEntity
  8
SA
100
AcDbLine
 10
297.0422589254631
 20
150.8329916690515
 30
0.0
 11
297.0422589254631
 21
153.8329916690515
 31
0.0
  0
LINE
  5
1EA0
330
1E
100
AcDbEntity
  8
SA
100
AcDbLine
 10
297.0422589254631
 20
153.8329916690515
 30
0.0
 11
275.3052589254633
 21
153.8329916690515
 31
0.0
  0
LINE
  5
1EA1
330
1E
100
AcDbEntity
  8
SA
100
AcDbLine
 10
297.0422589254631
 20
162.3329916690515
 30
0.0
 11
377.0422589254632
 21
162.3329916690515
 31
0.0
  0
LINE
  5
1EA2
330
1E
100
AcDbEntity
  8
SA
100
AcDbLine
 10
377.0422589254632
 20
162.3329916690515
 30
0.0
 11
377.0422589254632
 21
160.3329916690515
 31
0.0
  0
LINE
  5
1EA3
330
1E
100
AcDbEntity
  8
SA
100
AcDbLine
 10
377.0422589254632
 20
160.3329916690515
 30
0.0
 11
297.0422589254631
 21
160.3329916690515
 31
0.0
  0
LINE
  5
1EA4
330
1E
100
AcDbEntity
  8
SA
100
AcDbLine
 10
297.0422589254631
 20
153.8329916690515
 30
0.0
 11
297.0422589254631
 21
153.3329916690515
 31
0.0
  0
LINE
  5
1EA5
330
1E
100
AcDbEntity
  8
SA
100
AcDbLine
 10
297.0422589254631
 20
153.3329916690515
 30
0.0
 11
377.0422589254632
 21
153.3329916690515
 31
0.0
  0
LINE
  5
1EA6
330
1E
100
AcDbEntity
  8
SA
100
AcDbLine
 10
377.0422589254632
 20
153.3329916690515
 30
0.0
 11
377.0422589254632
 21
151.3329916690515
 31
0.0
  0
LINE
  5
1EA7
330
1E
100
AcDbEntity
  8
SA
100
AcDbLine
 10
377.0422589254632
 20
151.3329916690515
 30
0.0
 11
297.0422589254631
 21
151.3329916690515
 31
0.0
  0
LINE
  5
1EAA
330
1E
100
AcDbEntity
  8
SA
100
AcDbLine
 10
81.31725892546326
 20
164.3450000478688
 30
0.0
 11
81.31725892546326
 21
148.3450000478688
 31
0.0
  0
LINE
  5
1EAB
330
1E
100
AcDbEntity
  8
SC
100
AcDbLine
 10
80.31725892546326
 20
164.3450000478688
 30
0.0
 11
70.97142755618929
 21
164.3450000478688
 31
0.0
  0
LINE
  5
1EAC
330
1E
100
AcDbEntity
  8
SC
100
AcDbLine
 10
80.31725892546326
 20
148.3450000478688
 30
0.0
 11
70.97142755618929
 21
148.3450000478688
 31
0.0
  0
LINE
  5
1EAD
330
1E
100
AcDbEntity
  8
SC
100
AcDbLine
 10
72.97142755618928
 20
164.3450000478688
 30
0.0
 11
72.97142755618928
 21
140.623
 31
0.0
  0
SOLID
  5
1EAE
330
1E
100
AcDbEntity
  8
SC
100
AcDbTrace
 10
72.5547608895226
 20
145.8450000478688
 30
0.0
 11
73.38809422285597
 21
145.8450000478688
 31
0.0
 12
72.97142755618928
 22
148.3450000478688
 32
0.0
 13
72.97142755618928
 23
148.3450000478688
 33
0.0
  0
SOLID
  5
1EAF
330
1E
100
AcDbEntity
  8
SC
100
AcDbTrace
 10
72.5547608895226
 20
166.8450000478688
 30
0.0
 11
73.38809422285597
 21
166.8450000478688
 31
0.0
 12
72.97142755618928
 22
164.3450000478688
 32
0.0
 13
72.97142755618928
 23
164.3450000478688
 33
0.0
  0
LINE
  5
1EB0
330
1E
100
AcDbEntity
  8
SC
100
AcDbLine
 10
81.31725892546326
 20
147.3450000478688
 30
0.0
 11
81.31725892546326
 21
127.8530002580426
 31
0.0
  0
LINE
  5
1EB1
330
1E
100
AcDbEntity
  8
SC
100
AcDbLine
 10
222.0422589254633
 20
147.3450000478688
 30
0.0
 11
222.0422589254633
 21
127.8530002580426
 31
0.0
  0
LINE
  5
1EB2
330
1E
100
AcDbEntity
  8
SC
100
AcDbLine
 10
83.81725892546326
 20
129.8530002580426
 30
0.0
 11
219.5422589254633
 21
129.8530002580426
 31
0.0
  0
SOLID
  5
1EB3
330
1E
100
AcDbEntity
  8
SC
100
AcDbTrace
 10
83.81725892546326
 20
130.2696669247093
 30
0.0
 11
83.81725892546326
 21
129.436333591376
 31
0.0
 12
81.31725892546326
 22
129.8530002580426
 32
0.0
 13
81.31725892546326
 23
129.8530002580426
 33
0.0
  0
SOLID
  5
1EB4
330
1E
100
AcDbEntity
  8
SC
100
AcDbTrace
 10
219.5422589254633
 20
130.2696669247093
 30
0.0
 11
219.5422589254633
 21
129.436333591376
 31
0.0
 12
222.0422589254633
 22
129.8530002580426
 32
0.0
 13
222.0422589254633
 23
129.8530002580426
 33
0.0
  0
LINE
  5
1EB5
330
1E
100
AcDbEntity
  8
SA
100
AcDbLine
 10
222.0422589254633
 20
164.3450000478688
 30
0.0
 11
222.0422589254633
 21
166.1450000478688
 31
0.0
  0
LINE
  5
1EB6
330
1E
100
AcDbEntity
  8
SA
100
AcDbLine
 10
222.2422589254632
 20
166.3450000478688
 30
0.0
 11
246.8422589254632
 21
166.3450000478688
 31
0.0
  0
LINE
  5
1EB7
330
1E
100
AcDbEntity
  8
SA
100
AcDbLine
 10
222.0422589254633
 20
148.3450000478688
 30
0.0
 11
222.0422589254633
 21
146.5450000478688
 31
0.0
  0
LINE
  5
1EB8
330
1E
100
AcDbEntity
  8
SA
100
AcDbLine
 10
222.2422589254632
 20
146.3450000478688
 30
0.0
 11
246.8422589254632
 21
146.3450000478688
 31
0.0
  0
LINE
  5
1EB9
330
1E
100
AcDbEntity
  8
SA
100
AcDbLine
 10
247.0422589254633
 20
146.5450000478688
 30
0.0
 11
247.0422589254631
 21
166.1450000478688
 31
0.0
  0
LINE
  5
1EBA
330
1E
100
AcDbEntity
  8
SC
100
AcDbLine
 10
222.0422589254633
 20
145.3450000478688
 30
0.0
 11
222.0422589254633
 21
131.9520002580426
 31
0.0
  0
LINE
  5
1EBB
330
1E
100
AcDbEntity
  8
SC
100
AcDbLine
 10
222.0422589254633
 20
164.0011463929966
 30
0.0
 11
224.3861125803355
 21
166.3450000478688
 31
0.0
  0
LINE
  5
1EBC
330
1E
100
AcDbEntity
  8
SC
100
AcDbLine
 10
222.0422589254633
 20
161.3494959635471
 30
0.0
 11
227.037763009785
 21
166.3450000478688
 31
0.0
  0
LINE
  5
1EBD
330
1E
100
AcDbEntity
  8
SC
100
AcDbLine
 10
222.0422589254633
 20
158.6978455340975
 30
0.0
 11
229.6894134392346
 21
166.3450000478688
 31
0.0
  0
LINE
  5
1EBE
330
1E
100
AcDbEntity
  8
SC
100
AcDbLine
 10
222.0422589254633
 20
156.046195104648
 30
0.0
 11
232.3410638686841
 21
166.3450000478688
 31
0.0
  0
LINE
  5
1EBF
330
1E
100
AcDbEntity
  8
SC
100
AcDbLine
 10
222.0422589254633
 20
153.3945446751983
 30
0.0
 11
234.9927142981337
 21
166.3450000478688
 31
0.0
  0
LINE
  5
1EC0
330
1E
100
AcDbEntity
  8
SC
100
AcDbLine
 10
222.0422589254633
 20
150.7428942457488
 30
0.0
 11
237.6443647275832
 21
166.3450000478688
 31
0.0
  0
LINE
  5
1EC1
330
1E
100
AcDbEntity
  8
SC
100
AcDbLine
 10
222.0422589254633
 20
148.0912438162993
 30
0.0
 11
240.2960151570328
 21
166.3450000478688
 31
0.0
  0
LINE
  5
1EC2
330
1E
100
AcDbEntity
  8
SC
100
AcDbLine
 10
222.9476655864823
 20
146.3450000478688
 30
0.0
 11
242.9476655864823
 21
166.3450000478688
 31
0.0
  0
LINE
  5
1EC3
330
1E
100
AcDbEntity
  8
SC
100
AcDbLine
 10
225.5993160159318
 20
146.3450000478688
 30
0.0
 11
245.5993160159319
 21
166.3450000478688
 31
0.0
  0
LINE
  5
1EC4
330
1E
100
AcDbEntity
  8
SC
100
AcDbLine
 10
228.2509664453814
 20
146.3450000478688
 30
0.0
 11
247.0422589254633
 21
165.1362925279506
 31
0.0
  0
LINE
  5
1EC5
330
1E
100
AcDbEntity
  8
SC
100
AcDbLine
 10
230.9026168748309
 20
146.3450000478688
 30
0.0
 11
247.0422589254631
 21
162.484642098501
 31
0.0
  0
LINE
  5
1EC6
330
1E
100
AcDbEntity
  8
SC
100
AcDbLine
 10
233.5542673042806
 20
146.3450000478689
 30
0.0
 11
247.0422589254631
 21
159.8329916690515
 31
0.0
  0
LINE
  5
1EC7
330
1E
100
AcDbEntity
  8
SC
100
AcDbLine
 10
236.20591773373
 20
146.3450000478688
 30
0.0
 11
247.0422589254633
 21
157.1813412396019
 31
0.0
  0
LINE
  5
1EC8
330
1E
100
AcDbEntity
  8
SC
100
AcDbLine
 10
238.8575681631797
 20
146.3450000478689
 30
0.0
 11
247.0422589254633
 21
154.5296908101524
 31
0.0
  0
LINE
  5
1EC9
330
1E
100
AcDbEntity
  8
SC
100
AcDbLine
 10
241.5092185926292
 20
146.3450000478689
 30
0.0
 11
247.0422589254633
 21
151.8780403807028
 31
0.0
  0
LINE
  5
1ECA
330
1E
100
AcDbEntity
  8
SC
100
AcDbLine
 10
244.1608690220788
 20
146.3450000478689
 30
0.0
 11
247.0422589254633
 21
149.2263899512533
 31
0.0
  0
LINE
  5
1ECB
330
1E
100
AcDbEntity
  8
SC
100
AcDbLine
 10
223.174668829125
 20
146.3450000478688
 30
0.0
 11
222.0422589254631
 21
147.4774099515306
 31
0.0
  0
LINE
  5
1ECC
330
1E
100
AcDbEntity
  8
SC
100
AcDbLine
 10
225.8263192585745
 20
146.3450000478688
 30
0.0
 11
222.0422589254631
 21
150.1290603809801
 31
0.0
  0
LINE
  5
1ECD
330
1E
100
AcDbEntity
  8
SC
100
AcDbLine
 10
228.4779696880241
 20
146.3450000478688
 30
0.0
 11
222.0422589254631
 21
152.7807108104297
 31
0.0
  0
LINE
  5
1ECE
330
1E
100
AcDbEntity
  8
SC
100
AcDbLine
 10
231.1296201174736
 20
146.3450000478688
 30
0.0
 11
222.0422589254631
 21
155.4323612398792
 31
0.0
  0
LINE
  5
1ECF
330
1E
100
AcDbEntity
  8
SC
100
AcDbLine
 10
233.7812705469232
 20
146.3450000478688
 30
0.0
 11
222.0422589254631
 21
158.0840116693288
 31
0.0
  0
LINE
  5
1ED0
330
1E
100
AcDbEntity
  8
SC
100
AcDbLine
 10
236.4329209763727
 20
146.3450000478688
 30
0.0
 11
222.0422589254631
 21
160.7356620987783
 31
0.0
  0
LINE
  5
1ED1
330
1E
100
AcDbEntity
  8
SC
100
AcDbLine
 10
239.0845714058222
 20
146.3450000478688
 30
0.0
 11
222.0422589254631
 21
163.3873125282279
 31
0.0
  0
LINE
  5
1ED2
330
1E
100
AcDbEntity
  8
SC
100
AcDbLine
 10
241.7362218352718
 20
146.3450000478688
 30
0.0
 11
222.0422589254631
 21
166.0389629576774
 31
0.0
  0
LINE
  5
1ED3
330
1E
100
AcDbEntity
  8
SC
100
AcDbLine
 10
244.3878722647213
 20
146.3450000478688
 30
0.0
 11
224.3878722647214
 21
166.3450000478688
 31
0.0
  0
LINE
  5
1ED4
330
1E
100
AcDbEntity
  8
SC
100
AcDbLine
 10
246.940890809817
 20
146.4436319322226
 30
0.0
 11
227.0395226941709
 21
166.3450000478688
 31
0.0
  0
LINE
  5
1ED5
330
1E
100
AcDbEntity
  8
SC
100
AcDbLine
 10
247.0422589254631
 20
148.993914246026
 30
0.0
 11
229.6911731236205
 21
166.3450000478688
 31
0.0
  0
LINE
  5
1ED6
330
1E
100
AcDbEntity
  8
SC
100
AcDbLine
 10
247.0422589254631
 20
151.6455646754756
 30
0.0
 11
232.3428235530701
 21
166.3450000478688
 31
0.0
  0
LINE
  5
1ED7
330
1E
100
AcDbEntity
  8
SC
100
AcDbLine
 10
247.0422589254631
 20
154.2972151049252
 30
0.0
 11
234.9944739825196
 21
166.3450000478688
 31
0.0
  0
LINE
  5
1ED8
330
1E
100
AcDbEntity
  8
SC
100
AcDbLine
 10
247.0422589254631
 20
156.9488655343747
 30
0.0
 11
237.6461244119692
 21
166.3450000478688
 31
0.0
  0
LINE
  5
1ED9
330
1E
100
AcDbEntity
  8
SC
100
AcDbLine
 10
247.0422589254631
 20
159.6005159638243
 30
0.0
 11
240.2977748414187
 21
166.3450000478688
 31
0.0
  0
LINE
  5
1EDA
330
1E
100
AcDbEntity
  8
SC
100
AcDbLine
 10
247.0422589254631
 20
162.2521663932739
 30
0.0
 11
242.9494252708683
 21
166.3450000478688
 31
0.0
  0
LINE
  5
1EDB
330
1E
100
AcDbEntity
  8
SC
100
AcDbLine
 10
247.0422589254631
 20
164.9038168227234
 30
0.0
 11
245.6010757003178
 21
166.3450000478688
 31
0.0
  0
ARC
  5
1EDC
330
1E
100
AcDbEntity
  8
SB
100
AcDbCircle
 10
274.8052589254632
 20
162.8329916690515
 30
0.0
 40
0.5
100
AcDbArc
 50
0.0
 51
180.0
  0
ARC
  5
1EDD
330
1E
100
AcDbEntity
  8
SB
100
AcDbCircle
 10
273.8052589254632
 20
159.8329916690515
 30
0.0
 40
0.5
100
AcDbArc
 50
180.0
 51
0.0
  0
LINE
  5
1EDE
330
1E
100
AcDbEntity
  8
SB
100
AcDbLine
 10
274.3052589254632
 20
162.8329916690515
 30
0.0
 11
273.3052589254632
 21
159.8329916690515
 31
0.0
  0
LINE
  5
1EDF
330
1E
100
AcDbEntity
  8
SB
100
AcDbLine
 10
275.3052589254632
 20
162.8329916690515
 30
0.0
 11
274.3052589254632
 21
159.8329916690515
 31
0.0
  0
LINE
  5
1EE0
330
1E
100
AcDbEntity
  8
SB
100
AcDbLine
 10
274.3052589254632
 20
162.8329916690515
 30
0.0
 11
273.3052589254632
 21
159.8329916690515
 31
0.0
  0
ARC
  5
1EE1
330
1E
100
AcDbEntity
  8
SB
100
AcDbCircle
 10
273.8052589254632
 20
162.8329916690515
 30
0.0
 40
0.5
100
AcDbArc
 50
0.0
 51
180.0
  0
LINE
  5
1EE2
330
1E
100
AcDbEntity
  8
SB
100
AcDbLine
 10
273.3052589254632
 20
162.8329916690515
 30
0.0
 11
272.3052589254632
 21
159.8329916690515
 31
0.0
  0
ARC
  5
1EE3
330
1E
100
AcDbEntity
  8
SB
100
AcDbCircle
 10
272.8052589254632
 20
159.8329916690515
 30
0.0
 40
0.5
100
AcDbArc
 50
180.0
 51
0.0
  0
LINE
  5
1EE4
330
1E
100
AcDbEntity
  8
SB
100
AcDbLine
 10
273.3052589254632
 20
162.8329916690515
 30
0.0
 11
272.3052589254632
 21
159.8329916690515
 31
0.0
  0
ARC
  5
1EE5
330
1E
100
AcDbEntity
  8
SB
100
AcDbCircle
 10
272.8052589254632
 20
162.8329916690515
 30
0.0
 40
0.5
100
AcDbArc
 50
0.0
 51
180.0
  0
LINE
  5
1EE6
330
1E
100
AcDbEntity
  8
SB
100
AcDbLine
 10
272.3052589254632
 20
162.8329916690515
 30
0.0
 11
271.3052589254632
 21
159.8329916690515
 31
0.0
  0
ARC
  5
1EE7
330
1E
100
AcDbEntity
  8
SB
100
AcDbCircle
 10
271.8052589254632
 20
159.8329916690515
 30
0.0
 40
0.5
100
AcDbArc
 50
180.0
 51
0.0
  0
LINE
  5
1EE8
330
1E
100
AcDbEntity
  8
SB
100
AcDbLine
 10
272.3052589254632
 20
162.8329916690515
 30
0.0
 11
271.3052589254632
 21
159.8329916690515
 31
0.0
  0
ARC
  5
1EE9
330
1E
100
AcDbEntity
  8
SB
100
AcDbCircle
 10
271.8052589254632
 20
162.8329916690515
 30
0.0
 40
0.5
100
AcDbArc
 50
0.0
 51
180.0
  0
LINE
  5
1EEA
330
1E
100
AcDbEntity
  8
SB
100
AcDbLine
 10
271.3052589254632
 20
162.8329916690515
 30
0.0
 11
270.3052589254632
 21
159.8329916690515
 31
0.0
  0
ARC
  5
1EEB
330
1E
100
AcDbEntity
  8
SB
100
AcDbCircle
 10
270.8052589254632
 20
159.8329916690515
 30
0.0
 40
0.5
100
AcDbArc
 50
180.0
 51
0.0
  0
LINE
  5
1EEC
330
1E
100
AcDbEntity
  8
SB
100
AcDbLine
 10
271.3052589254632
 20
162.8329916690515
 30
0.0
 11
270.3052589254632
 21
159.8329916690515
 31
0.0
  0
ARC
  5
1EED
330
1E
100
AcDbEntity
  8
SB
100
AcDbCircle
 10
270.8052589254632
 20
162.8329916690515
 30
0.0
 40
0.5
100
AcDbArc
 50
0.0
 51
180.0
  0
LINE
  5
1EEE
330
1E
100
AcDbEntity
  8
SB
100
AcDbLine
 10
270.3052589254632
 20
162.8329916690515
 30
0.0
 11
269.3052589254632
 21
159.8329916690515
 31
0.0
  0
ARC
  5
1EEF
330
1E
100
AcDbEntity
  8
SB
100
AcDbCircle
 10
269.8052589254632
 20
159.8329916690515
 30
0.0
 40
0.5
100
AcDbArc
 50
180.0
 51
0.0
  0
LINE
  5
1EF0
330
1E
100
AcDbEntity
  8
SB
100
AcDbLine
 10
270.3052589254632
 20
162.8329916690515
 30
0.0
 11
269.3052589254632
 21
159.8329916690515
 31
0.0
  0
ARC
  5
1EF1
330
1E
100
AcDbEntity
  8
SB
100
AcDbCircle
 10
269.8052589254632
 20
162.8329916690515
 30
0.0
 40
0.5
100
AcDbArc
 50
0.0
 51
180.0
  0
LINE
  5
1EF2
330
1E
100
AcDbEntity
  8
SB
100
AcDbLine
 10
269.3052589254632
 20
162.8329916690515
 30
0.0
 11
268.3052589254632
 21
159.8329916690515
 31
0.0
  0
ARC
  5
1EF3
330
1E
100
AcDbEntity
  8
SB
100
AcDbCircle
 10
268.8052589254632
 20
159.8329916690515
 30
0.0
 40
0.5
100
AcDbArc
 50
180.0
 51
0.0
  0
LINE
  5
1EF4
330
1E
100
AcDbEntity
  8
SB
100
AcDbLine
 10
269.3052589254632
 20
162.8329916690515
 30
0.0
 11
268.3052589254632
 21
159.8329916690515
 31
0.0
  0
ARC
  5
1EF5
330
1E
100
AcDbEntity
  8
SB
100
AcDbCircle
 10
268.8052589254632
 20
162.8329916690515
 30
0.0
 40
0.5
100
AcDbArc
 50
0.0
 51
180.0
  0
LINE
  5
1EF6
330
1E
100
AcDbEntity
  8
SB
100
AcDbLine
 10
268.3052589254632
 20
162.8329916690515
 30
0.0
 11
267.3052589254632
 21
159.8329916690515
 31
0.0
  0
ARC
  5
1EF7
330
1E
100
AcDbEntity
  8
SB
100
AcDbCircle
 10
267.8052589254632
 20
159.8329916690515
 30
0.0
 40
0.5
100
AcDbArc
 50
180.0
 51
0.0
  0
LINE
  5
1EF8
330
1E
100
AcDbEntity
  8
SB
100
AcDbLine
 10
268.3052589254632
 20
162.8329916690515
 30
0.0
 11
267.3052589254632
 21
159.8329916690515
 31
0.0
  0
ARC
  5
1EF9
330
1E
100
AcDbEntity
  8
SB
100
AcDbCircle
 10
267.8052589254632
 20
162.8329916690515
 30
0.0
 40
0.5
100
AcDbArc
 50
0.0
 51
180.0
  0
LINE
  5
1EFA
330
1E
100
AcDbEntity
  8
SB
100
AcDbLine
 10
267.3052589254632
 20
162.8329916690515
 30
0.0
 11
266.3052589254632
 21
159.8329916690515
 31
0.0
  0
ARC
  5
1EFB
330
1E
100
AcDbEntity
  8
SB
100
AcDbCircle
 10
266.8052589254632
 20
159.8329916690515
 30
0.0
 40
0.5
100
AcDbArc
 50
180.0
 51
0.0
  0
LINE
  5
1EFC
330
1E
100
AcDbEntity
  8
SB
100
AcDbLine
 10
267.3052589254632
 20
162.8329916690515
 30
0.0
 11
266.3052589254632
 21
159.8329916690515
 31
0.0
  0
ARC
  5
1EFD
330
1E
100
AcDbEntity
  8
SB
100
AcDbCircle
 10
266.8052589254632
 20
162.8329916690515
 30
0.0
 40
0.5
100
AcDbArc
 50
0.0
 51
180.0
  0
LINE
  5
1EFE
330
1E
100
AcDbEntity
  8
SB
100
AcDbLine
 10
266.3052589254632
 20
162.8329916690515
 30
0.0
 11
265.3052589254632
 21
159.8329916690515
 31
0.0
  0
ARC
  5
1EFF
330
1E
100
AcDbEntity
  8
SB
100
AcDbCircle
 10
265.8052589254632
 20
159.8329916690515
 30
0.0
 40
0.5
100
AcDbArc
 50
180.0
 51
0.0
  0
LINE
  5
1F00
330
1E
100
AcDbEntity
  8
SB
100
AcDbLine
 10
266.3052589254632
 20
162.8329916690515
 30
0.0
 11
265.3052589254632
 21
159.8329916690515
 31
0.0
  0
ARC
  5
1F01
330
1E
100
AcDbEntity
  8
SB
100
AcDbCircle
 10
265.8052589254632
 20
162.8329916690515
 30
0.0
 40
0.5
100
AcDbArc
 50
0.0
 51
180.0
  0
LINE
  5
1F02
330
1E
100
AcDbEntity
  8
SB
100
AcDbLine
 10
265.3052589254632
 20
162.8329916690515
 30
0.0
 11
264.3052589254632
 21
159.8329916690515
 31
0.0
  0
ARC
  5
1F03
330
1E
100
AcDbEntity
  8
SB
100
AcDbCircle
 10
264.8052589254632
 20
159.8329916690515
 30
0.0
 40
0.5
100
AcDbArc
 50
180.0
 51
0.0
  0
LINE
  5
1F04
330
1E
100
AcDbEntity
  8
SB
100
AcDbLine
 10
265.3052589254632
 20
162.8329916690515
 30
0.0
 11
264.3052589254632
 21
159.8329916690515
 31
0.0
  0
ARC
  5
1F05
330
1E
100
AcDbEntity
  8
SB
100
AcDbCircle
 10
264.8052589254632
 20
162.8329916690515
 30
0.0
 40
0.5
100
AcDbArc
 50
0.0
 51
180.0
  0
LINE
  5
1F06
330
1E
100
AcDbEntity
  8
SB
100
AcDbLine
 10
264.3052589254632
 20
162.8329916690515
 30
0.0
 11
263.3052589254632
 21
159.8329916690515
 31
0.0
  0
ARC
  5
1F07
330
1E
100
AcDbEntity
  8
SB
100
AcDbCircle
 10
263.8052589254632
 20
159.8329916690515
 30
0.0
 40
0.5
100
AcDbArc
 50
180.0
 51
0.0
  0
LINE
  5
1F08
330
1E
100
AcDbEntity
  8
SB
100
AcDbLine
 10
264.3052589254632
 20
162.8329916690515
 30
0.0
 11
263.3052589254632
 21
159.8329916690515
 31
0.0
  0
ARC
  5
1F09
330
1E
100
AcDbEntity
  8
SB
100
AcDbCircle
 10
263.8052589254632
 20
162.8329916690515
 30
0.0
 40
0.5
100
AcDbArc
 50
0.0
 51
180.0
  0
LINE
  5
1F0A
330
1E
100
AcDbEntity
  8
SB
100
AcDbLine
 10
263.3052589254632
 20
162.8329916690515
 30
0.0
 11
262.3052589254632
 21
159.8329916690515
 31
0.0
  0
ARC
  5
1F0B
330
1E
100
AcDbEntity
  8
SB
100
AcDbCircle
 10
262.8052589254632
 20
159.8329916690515
 30
0.0
 40
0.5
100
AcDbArc
 50
180.0
 51
0.0
  0
LINE
  5
1F0C
330
1E
100
AcDbEntity
  8
SB
100
AcDbLine
 10
263.3052589254632
 20
162.8329916690515
 30
0.0
 11
262.3052589254632
 21
159.8329916690515
 31
0.0
  0
ARC
  5
1F0D
330
1E
100
AcDbEntity
  8
SB
100
AcDbCircle
 10
262.8052589254632
 20
162.8329916690515
 30
0.0
 40
0.5
100
AcDbArc
 50
0.0
 51
180.0
  0
LINE
  5
1F0E
330
1E
100
AcDbEntity
  8
SB
100
AcDbLine
 10
262.3052589254632
 20
162.8329916690515
 30
0.0
 11
261.3052589254632
 21
159.8329916690515
 31
0.0
  0
ARC
  5
1F0F
330
1E
100
AcDbEntity
  8
SB
100
AcDbCircle
 10
261.8052589254632
 20
159.8329916690515
 30
0.0
 40
0.5
100
AcDbArc
 50
180.0
 51
0.0
  0
LINE
  5
1F10
330
1E
100
AcDbEntity
  8
SB
100
AcDbLine
 10
262.3052589254632
 20
162.8329916690515
 30
0.0
 11
261.3052589254632
 21
159.8329916690515
 31
0.0
  0
ARC
  5
1F11
330
1E
100
AcDbEntity
  8
SB
100
AcDbCircle
 10
261.8052589254632
 20
162.8329916690515
 30
0.0
 40
0.5
100
AcDbArc
 50
0.0
 51
180.0
  0
LINE
  5
1F12
330
1E
100
AcDbEntity
  8
SB
100
AcDbLine
 10
261.3052589254632
 20
162.8329916690515
 30
0.0
 11
260.3052589254632
 21
159.8329916690515
 31
0.0
  0
ARC
  5
1F13
330
1E
100
AcDbEntity
  8
SB
100
AcDbCircle
 10
260.8052589254632
 20
159.8329916690515
 30
0.0
 40
0.5
100
AcDbArc
 50
180.0
 51
0.0
  0
LINE
  5
1F14
330
1E
100
AcDbEntity
  8
SB
100
AcDbLine
 10
261.3052589254632
 20
162.8329916690515
 30
0.0
 11
260.3052589254632
 21
159.8329916690515
 31
0.0
  0
ARC
  5
1F15
330
1E
100
AcDbEntity
  8
SB
100
AcDbCircle
 10
260.8052589254632
 20
162.8329916690515
 30
0.0
 40
0.5
100
AcDbArc
 50
0.0
 51
180.0
  0
LINE
  5
1F16
330
1E
100
AcDbEntity
  8
SB
100
AcDbLine
 10
260.3052589254632
 20
162.8329916690515
 30
0.0
 11
259.3052589254632
 21
159.8329916690515
 31
0.0
  0
ARC
  5
1F17
330
1E
100
AcDbEntity
  8
SB
100
AcDbCircle
 10
259.8052589254632
 20
159.8329916690515
 30
0.0
 40
0.5
100
AcDbArc
 50
180.0
 51
0.0
  0
LINE
  5
1F18
330
1E
100
AcDbEntity
  8
SB
100
AcDbLine
 10
260.3052589254632
 20
162.8329916690515
 30
0.0
 11
259.3052589254632
 21
159.8329916690515
 31
0.0
  0
ARC
  5
1F19
330
1E
100
AcDbEntity
  8
SB
100
AcDbCircle
 10
259.8052589254632
 20
162.8329916690515
 30
0.0
 40
0.5
100
AcDbArc
 50
0.0
 51
180.0
  0
LINE
  5
1F1A
330
1E
100
AcDbEntity
  8
SB
100
AcDbLine
 10
259.3052589254632
 20
162.8329916690515
 30
0.0
 11
258.3052589254632
 21
159.8329916690515
 31
0.0
  0
ARC
  5
1F1B
330
1E
100
AcDbEntity
  8
SB
100
AcDbCircle
 10
258.8052589254632
 20
159.8329916690515
 30
0.0
 40
0.5
100
AcDbArc
 50
180.0
 51
0.0
  0
LINE
  5
1F1C
330
1E
100
AcDbEntity
  8
SB
100
AcDbLine
 10
259.3052589254632
 20
162.8329916690515
 30
0.0
 11
258.3052589254632
 21
159.8329916690515
 31
0.0
  0
ARC
  5
1F1D
330
1E
100
AcDbEntity
  8
SB
100
AcDbCircle
 10
258.8052589254632
 20
162.8329916690515
 30
0.0
 40
0.5
100
AcDbArc
 50
0.0
 51
180.0
  0
LINE
  5
1F1E
330
1E
100
AcDbEntity
  8
SB
100
AcDbLine
 10
258.3052589254632
 20
162.8329916690515
 30
0.0
 11
257.3052589254632
 21
159.8329916690515
 31
0.0
  0
ARC
  5
1F1F
330
1E
100
AcDbEntity
  8
SB
100
AcDbCircle
 10
257.8052589254632
 20
159.8329916690515
 30
0.0
 40
0.5
100
AcDbArc
 50
180.0
 51
0.0
  0
LINE
  5
1F20
330
1E
100
AcDbEntity
  8
SB
100
AcDbLine
 10
258.3052589254632
 20
162.8329916690515
 30
0.0
 11
257.3052589254632
 21
159.8329916690515
 31
0.0
  0
ARC
  5
1F21
330
1E
100
AcDbEntity
  8
SB
100
AcDbCircle
 10
257.8052589254632
 20
162.8329916690515
 30
0.0
 40
0.5
100
AcDbArc
 50
0.0
 51
180.0
  0
LINE
  5
1F22
330
1E
100
AcDbEntity
  8
SB
100
AcDbLine
 10
257.3052589254632
 20
162.8329916690515
 30
0.0
 11
256.3052589254632
 21
159.8329916690515
 31
0.0
  0
ARC
  5
1F23
330
1E
100
AcDbEntity
  8
SB
100
AcDbCircle
 10
256.8052589254632
 20
159.8329916690515
 30
0.0
 40
0.5
100
AcDbArc
 50
180.0
 51
0.0
  0
LINE
  5
1F24
330
1E
100
AcDbEntity
  8
SB
100
AcDbLine
 10
257.3052589254632
 20
162.8329916690515
 30
0.0
 11
256.3052589254632
 21
159.8329916690515
 31
0.0
  0
ARC
  5
1F25
330
1E
100
AcDbEntity
  8
SB
100
AcDbCircle
 10
256.8052589254632
 20
162.8329916690515
 30
0.0
 40
0.5
100
AcDbArc
 50
0.0
 51
180.0
  0
LINE
  5
1F26
330
1E
100
AcDbEntity
  8
SB
100
AcDbLine
 10
256.3052589254632
 20
162.8329916690515
 30
0.0
 11
255.3052589254632
 21
159.8329916690515
 31
0.0
  0
ARC
  5
1F27
330
1E
100
AcDbEntity
  8
SB
100
AcDbCircle
 10
255.8052589254632
 20
159.8329916690515
 30
0.0
 40
0.5
100
AcDbArc
 50
180.0
 51
0.0
  0
LINE
  5
1F28
330
1E
100
AcDbEntity
  8
SB
100
AcDbLine
 10
256.3052589254632
 20
162.8329916690515
 30
0.0
 11
255.3052589254632
 21
159.8329916690515
 31
0.0
  0
ARC
  5
1F29
330
1E
100
AcDbEntity
  8
SB
100
AcDbCircle
 10
255.8052589254632
 20
162.8329916690515
 30
0.0
 40
0.5
100
AcDbArc
 50
0.0
 51
180.0
  0
LINE
  5
1F2A
330
1E
100
AcDbEntity
  8
SB
100
AcDbLine
 10
255.3052589254632
 20
162.8329916690515
 30
0.0
 11
254.3052589254632
 21
159.8329916690515
 31
0.0
  0
ARC
  5
1F2B
330
1E
100
AcDbEntity
  8
SB
100
AcDbCircle
 10
254.8052589254632
 20
159.8329916690515
 30
0.0
 40
0.5
100
AcDbArc
 50
180.0
 51
0.0
  0
LINE
  5
1F2C
330
1E
100
AcDbEntity
  8
SB
100
AcDbLine
 10
255.3052589254632
 20
162.8329916690515
 30
0.0
 11
254.3052589254632
 21
159.8329916690515
 31
0.0
  0
ARC
  5
1F2D
330
1E
100
AcDbEntity
  8
SB
100
AcDbCircle
 10
254.8052589254632
 20
162.8329916690515
 30
0.0
 40
0.5
100
AcDbArc
 50
0.0
 51
180.0
  0
LINE
  5
1F2E
330
1E
100
AcDbEntity
  8
SB
100
AcDbLine
 10
254.3052589254632
 20
162.8329916690515
 30
0.0
 11
253.3052589254632
 21
159.8329916690515
 31
0.0
  0
ARC
  5
1F2F
330
1E
100
AcDbEntity
  8
SB
100
AcDbCircle
 10
253.8052589254632
 20
159.8329916690515
 30
0.0
 40
0.5
100
AcDbArc
 50
180.0
 51
0.0
  0
LINE
  5
1F30
330
1E
100
AcDbEntity
  8
SB
100
AcDbLine
 10
254.3052589254632
 20
162.8329916690515
 30
0.0
 11
253.3052589254632
 21
159.8329916690515
 31
0.0
  0
ARC
  5
1F31
330
1E
100
AcDbEntity
  8
SB
100
AcDbCircle
 10
253.8052589254632
 20
162.8329916690515
 30
0.0
 40
0.5
100
AcDbArc
 50
0.0
 51
180.0
  0
LINE
  5
1F32
330
1E
100
AcDbEntity
  8
SB
100
AcDbLine
 10
253.3052589254632
 20
162.8329916690515
 30
0.0
 11
252.3052589254632
 21
159.8329916690515
 31
0.0
  0
ARC
  5
1F33
330
1E
100
AcDbEntity
  8
SB
100
AcDbCircle
 10
252.8052589254632
 20
159.8329916690515
 30
0.0
 40
0.5
100
AcDbArc
 50
180.0
 51
0.0
  0
LINE
  5
1F34
330
1E
100
AcDbEntity
  8
SB
100
AcDbLine
 10
253.3052589254632
 20
162.8329916690515
 30
0.0
 11
252.3052589254632
 21
159.8329916690515
 31
0.0
  0
ARC
  5
1F35
330
1E
100
AcDbEntity
  8
SB
100
AcDbCircle
 10
252.8052589254632
 20
162.8329916690515
 30
0.0
 40
0.5
100
AcDbArc
 50
0.0
 51
180.0
  0
LINE
  5
1F36
330
1E
100
AcDbEntity
  8
SB
100
AcDbLine
 10
252.3052589254632
 20
162.8329916690515
 30
0.0
 11
251.3052589254632
 21
159.8329916690515
 31
0.0
  0
ARC
  5
1F37
330
1E
100
AcDbEntity
  8
SB
100
AcDbCircle
 10
251.8052589254632
 20
159.8329916690515
 30
0.0
 40
0.5
100
AcDbArc
 50
180.0
 51
0.0
  0
LINE
  5
1F38
330
1E
100
AcDbEntity
  8
SB
100
AcDbLine
 10
252.3052589254632
 20
162.8329916690515
 30
0.0
 11
251.3052589254632
 21
159.8329916690515
 31
0.0
  0
ARC
  5
1F39
330
1E
100
AcDbEntity
  8
SB
100
AcDbCircle
 10
251.8052589254632
 20
162.8329916690515
 30
0.0
 40
0.5
100
AcDbArc
 50
0.0
 51
180.0
  0
LINE
  5
1F3A
330
1E
100
AcDbEntity
  8
SB
100
AcDbLine
 10
251.3052589254632
 20
162.8329916690515
 30
0.0
 11
250.3052589254632
 21
159.8329916690515
 31
0.0
  0
ARC
  5
1F3B
330
1E
100
AcDbEntity
  8
SB
100
AcDbCircle
 10
250.8052589254632
 20
159.8329916690515
 30
0.0
 40
0.5
100
AcDbArc
 50
180.0
 51
0.0
  0
LINE
  5
1F3C
330
1E
100
AcDbEntity
  8
SB
100
AcDbLine
 10
251.3052589254632
 20
162.8329916690515
 30
0.0
 11
250.3052589254632
 21
159.8329916690515
 31
0.0
  0
ARC
  5
1F3D
330
1E
100
AcDbEntity
  8
SB
100
AcDbCircle
 10
250.8052589254632
 20
162.8329916690515
 30
0.0
 40
0.5
100
AcDbArc
 50
0.0
 51
180.0
  0
LINE
  5
1F3E
330
1E
100
AcDbEntity
  8
SB
100
AcDbLine
 10
250.3052589254632
 20
162.8329916690515
 30
0.0
 11
249.3052589254632
 21
159.8329916690515
 31
0.0
  0
ARC
  5
1F3F
330
1E
100
AcDbEntity
  8
SB
100
AcDbCircle
 10
249.8052589254632
 20
159.8329916690515
 30
0.0
 40
0.5
100
AcDbArc
 50
180.0
 51
0.0
  0
LINE
  5
1F40
330
1E
100
AcDbEntity
  8
SB
100
AcDbLine
 10
250.3052589254632
 20
162.8329916690515
 30
0.0
 11
249.3052589254632
 21
159.8329916690515
 31
0.0
  0
ARC
  5
1F41
330
1E
100
AcDbEntity
  8
SB
100
AcDbCircle
 10
249.8052589254632
 20
162.8329916690515
 30
0.0
 40
0.5
100
AcDbArc
 50
0.0
 51
180.0
  0
LINE
  5
1F42
330
1E
100
AcDbEntity
  8
SB
100
AcDbLine
 10
249.3052589254632
 20
162.8329916690515
 30
0.0
 11
248.3052589254632
 21
159.8329916690515
 31
0.0
  0
ARC
  5
1F43
330
1E
100
AcDbEntity
  8
SB
100
AcDbCircle
 10
248.8052589254632
 20
159.8329916690515
 30
0.0
 40
0.5
100
AcDbArc
 50
180.0
 51
0.0
  0
LINE
  5
1F44
330
1E
100
AcDbEntity
  8
SB
100
AcDbLine
 10
249.3052589254632
 20
162.8329916690515
 30
0.0
 11
248.3052589254632
 21
159.8329916690515
 31
0.0
  0
ARC
  5
1F45
330
1E
100
AcDbEntity
  8
SB
100
AcDbCircle
 10
248.8052589254632
 20
162.8329916690515
 30
0.0
 40
0.5
100
AcDbArc
 50
0.0
 51
180.0
  0
LINE
  5
1F46
330
1E
100
AcDbEntity
  8
SB
100
AcDbLine
 10
248.3052589254632
 20
162.8329916690515
 30
0.0
 11
247.3052589254632
 21
159.8329916690515
 31
0.0
  0
ARC
  5
1F47
330
1E
100
AcDbEntity
  8
SB
100
AcDbCircle
 10
247.8052589254632
 20
159.8329916690515
 30
0.0
 40
0.5
100
AcDbArc
 50
180.0
 51
0.0
  0
LINE
  5
1F48
330
1E
100
AcDbEntity
  8
SB
100
AcDbLine
 10
248.3052589254632
 20
162.8329916690515
 30
0.0
 11
247.3052589254632
 21
159.8329916690515
 31
0.0
  0
ARC
  5
1F49
330
1E
100
AcDbEntity
  8
SB
100
AcDbCircle
 10
247.8052589254632
 20
162.8329916690515
 30
0.0
 40
0.5
100
AcDbArc
 50
0.0
 51
180.0
  0
LINE
  5
1F4A
330
1E
100
AcDbEntity
  8
SB
100
AcDbLine
 10
247.3052589254632
 20
162.8329916690515
 30
0.0
 11
247.0422589254633
 21
162.0439916690514
 31
0.0
  0
ARC
  5
1F4B
330
1E
100
AcDbEntity
  8
SB
100
AcDbCircle
 10
246.8052589254632
 20
159.8329916690515
 30
0.0
 40
0.5
100
AcDbArc
 50
298.2942600797175
 51
0.0
  0
LINE
  5
1F4C
330
1E
100
AcDbEntity
  8
SB
100
AcDbLine
 10
275.3052589254632
 20
162.8329916690515
 30
0.0
 11
274.3052589254632
 21
159.8329916690515
 31
0.0
  0
ARC
  5
1F4D
330
1E
100
AcDbEntity
  8
SB
100
AcDbCircle
 10
274.8052589254632
 20
159.8329916690515
 30
0.0
 40
0.5
100
AcDbArc
 50
180.0
 51
0.0
  0
LINE
  5
1F4E
330
1E
100
AcDbEntity
  8
SB
100
AcDbLine
 10
275.3052589254632
 20
162.8329916690515
 30
0.0
 11
275.3052589254632
 21
159.8329916690515
 31
0.0
  0
ARC
  5
1F4F
330
1E
100
AcDbEntity
  8
SB
100
AcDbCircle
 10
246.8052589254632
 20
162.8329916690515
 30
0.0
 40
0.5
100
AcDbArc
 50
0.0
 51
61.70573992028255
  0
ARC
  5
1F50
330
1E
100
AcDbEntity
  8
SB
100
AcDbCircle
 10
246.8052589254633
 20
153.8232626797868
 30
0.0
 40
0.5
100
AcDbArc
 50
0.0
 51
61.70573992028255
  0
LINE
  5
1F51
330
1E
100
AcDbEntity
  8
SB
100
AcDbLine
 10
275.3052589254633
 20
153.8232626797868
 30
0.0
 11
275.3052589254633
 21
150.8232626797868
 31
0.0
  0
ARC
  5
1F52
330
1E
100
AcDbEntity
  8
SB
100
AcDbCircle
 10
274.8052589254633
 20
150.8232626797868
 30
0.0
 40
0.5
100
AcDbArc
 50
180.0
 51
0.0
  0
LINE
  5
1F53
330
1E
100
AcDbEntity
  8
SB
100
AcDbLine
 10
275.3052589254633
 20
153.8232626797868
 30
0.0
 11
274.3052589254633
 21
150.8232626797868
 31
0.0
  0
ARC
  5
1F54
330
1E
100
AcDbEntity
  8
SB
100
AcDbCircle
 10
246.8052589254633
 20
150.8232626797868
 30
0.0
 40
0.5
100
AcDbArc
 50
298.2942600797175
 51
0.0
  0
LINE
  5
1F55
330
1E
100
AcDbEntity
  8
SB
100
AcDbLine
 10
247.3052589254633
 20
153.8232626797868
 30
0.0
 11
247.0422589254633
 21
153.0342626797867
 31
0.0
  0
ARC
  5
1F56
330
1E
100
AcDbEntity
  8
SB
100
AcDbCircle
 10
247.8052589254633
 20
153.8232626797868
 30
0.0
 40
0.5
100
AcDbArc
 50
0.0
 51
180.0
  0
LINE
  5
1F57
330
1E
100
AcDbEntity
  8
SB
100
AcDbLine
 10
248.3052589254633
 20
153.8232626797868
 30
0.0
 11
247.3052589254633
 21
150.8232626797868
 31
0.0
  0
ARC
  5
1F58
330
1E
100
AcDbEntity
  8
SB
100
AcDbCircle
 10
247.8052589254633
 20
150.8232626797868
 30
0.0
 40
0.5
100
AcDbArc
 50
180.0
 51
0.0
  0
LINE
  5
1F59
330
1E
100
AcDbEntity
  8
SB
100
AcDbLine
 10
248.3052589254633
 20
153.8232626797868
 30
0.0
 11
247.3052589254633
 21
150.8232626797868
 31
0.0
  0
ARC
  5
1F5A
330
1E
100
AcDbEntity
  8
SB
100
AcDbCircle
 10
248.8052589254633
 20
153.8232626797868
 30
0.0
 40
0.5
100
AcDbArc
 50
0.0
 51
180.0
  0
LINE
  5
1F5B
330
1E
100
AcDbEntity
  8
SB
100
AcDbLine
 10
249.3052589254633
 20
153.8232626797868
 30
0.0
 11
248.3052589254633
 21
150.8232626797868
 31
0.0
  0
ARC
  5
1F5C
330
1E
100
AcDbEntity
  8
SB
100
AcDbCircle
 10
248.8052589254633
 20
150.8232626797868
 30
0.0
 40
0.5
100
AcDbArc
 50
180.0
 51
0.0
  0
LINE
  5
1F5D
330
1E
100
AcDbEntity
  8
SB
100
AcDbLine
 10
249.3052589254633
 20
153.8232626797868
 30
0.0
 11
248.3052589254633
 21
150.8232626797868
 31
0.0
  0
ARC
  5
1F5E
330
1E
100
AcDbEntity
  8
SB
100
AcDbCircle
 10
249.8052589254633
 20
153.8232626797868
 30
0.0
 40
0.5
100
AcDbArc
 50
0.0
 51
180.0
  0
LINE
  5
1F5F
330
1E
100
AcDbEntity
  8
SB
100
AcDbLine
 10
250.3052589254633
 20
153.8232626797868
 30
0.0
 11
249.3052589254633
 21
150.8232626797868
 31
0.0
  0
ARC
  5
1F60
330
1E
100
AcDbEntity
  8
SB
100
AcDbCircle
 10
249.8052589254633
 20
150.8232626797868
 30
0.0
 40
0.5
100
AcDbArc
 50
180.0
 51
0.0
  0
LINE
  5
1F61
330
1E
100
AcDbEntity
  8
SB
100
AcDbLine
 10
250.3052589254633
 20
153.8232626797868
 30
0.0
 11
249.3052589254633
 21
150.8232626797868
 31
0.0
  0
ARC
  5
1F62
330
1E
100
AcDbEntity
  8
SB
100
AcDbCircle
 10
250.8052589254633
 20
153.8232626797868
 30
0.0
 40
0.5
100
AcDbArc
 50
0.0
 51
180.0
  0
LINE
  5
1F63
330
1E
100
AcDbEntity
  8
SB
100
AcDbLine
 10
251.3052589254633
 20
153.8232626797868
 30
0.0
 11
250.3052589254633
 21
150.8232626797868
 31
0.0
  0
ARC
  5
1F64
330
1E
100
AcDbEntity
  8
SB
100
AcDbCircle
 10
250.8052589254633
 20
150.8232626797868
 30
0.0
 40
0.5
100
AcDbArc
 50
180.0
 51
0.0
  0
LINE
  5
1F65
330
1E
100
AcDbEntity
  8
SB
100
AcDbLine
 10
251.3052589254633
 20
153.8232626797868
 30
0.0
 11
250.3052589254633
 21
150.8232626797868
 31
0.0
  0
ARC
  5
1F66
330
1E
100
AcDbEntity
  8
SB
100
AcDbCircle
 10
251.8052589254633
 20
153.8232626797868
 30
0.0
 40
0.5
100
AcDbArc
 50
0.0
 51
180.0
  0
LINE
  5
1F67
330
1E
100
AcDbEntity
  8
SB
100
AcDbLine
 10
252.3052589254633
 20
153.8232626797868
 30
0.0
 11
251.3052589254633
 21
150.8232626797868
 31
0.0
  0
ARC
  5
1F68
330
1E
100
AcDbEntity
  8
SB
100
AcDbCircle
 10
251.8052589254633
 20
150.8232626797868
 30
0.0
 40
0.5
100
AcDbArc
 50
180.0
 51
0.0
  0
LINE
  5
1F69
330
1E
100
AcDbEntity
  8
SB
100
AcDbLine
 10
252.3052589254633
 20
153.8232626797868
 30
0.0
 11
251.3052589254633
 21
150.8232626797868
 31
0.0
  0
ARC
  5
1F6A
330
1E
100
AcDbEntity
  8
SB
100
AcDbCircle
 10
252.8052589254633
 20
153.8232626797868
 30
0.0
 40
0.5
100
AcDbArc
 50
0.0
 51
180.0
  0
LINE
  5
1F6B
330
1E
100
AcDbEntity
  8
SB
100
AcDbLine
 10
253.3052589254633
 20
153.8232626797868
 30
0.0
 11
252.3052589254633
 21
150.8232626797868
 31
0.0
  0
ARC
  5
1F6C
330
1E
100
AcDbEntity
  8
SB
100
AcDbCircle
 10
252.8052589254633
 20
150.8232626797868
 30
0.0
 40
0.5
100
AcDbArc
 50
180.0
 51
0.0
  0
LINE
  5
1F6D
330
1E
100
AcDbEntity
  8
SB
100
AcDbLine
 10
253.3052589254633
 20
153.8232626797868
 30
0.0
 11
252.3052589254633
 21
150.8232626797868
 31
0.0
  0
ARC
  5
1F6E
330
1E
100
AcDbEntity
  8
SB
100
AcDbCircle
 10
253.8052589254633
 20
153.8232626797868
 30
0.0
 40
0.5
100
AcDbArc
 50
0.0
 51
180.0
  0
LINE
  5
1F6F
330
1E
100
AcDbEntity
  8
SB
100
AcDbLine
 10
254.3052589254633
 20
153.8232626797868
 30
0.0
 11
253.3052589254633
 21
150.8232626797868
 31
0.0
  0
ARC
  5
1F70
330
1E
100
AcDbEntity
  8
SB
100
AcDbCircle
 10
253.8052589254633
 20
150.8232626797868
 30
0.0
 40
0.5
100
AcDbArc
 50
180.0
 51
0.0
  0
LINE
  5
1F71
330
1E
100
AcDbEntity
  8
SB
100
AcDbLine
 10
254.3052589254633
 20
153.8232626797868
 30
0.0
 11
253.3052589254633
 21
150.8232626797868
 31
0.0
  0
ARC
  5
1F72
330
1E
100
AcDbEntity
  8
SB
100
AcDbCircle
 10
254.8052589254633
 20
153.8232626797868
 30
0.0
 40
0.5
100
AcDbArc
 50
0.0
 51
180.0
  0
LINE
  5
1F73
330
1E
100
AcDbEntity
  8
SB
100
AcDbLine
 10
255.3052589254633
 20
153.8232626797868
 30
0.0
 11
254.3052589254633
 21
150.8232626797868
 31
0.0
  0
ARC
  5
1F74
330
1E
100
AcDbEntity
  8
SB
100
AcDbCircle
 10
254.8052589254633
 20
150.8232626797868
 30
0.0
 40
0.5
100
AcDbArc
 50
180.0
 51
0.0
  0
LINE
  5
1F75
330
1E
100
AcDbEntity
  8
SB
100
AcDbLine
 10
255.3052589254633
 20
153.8232626797868
 30
0.0
 11
254.3052589254633
 21
150.8232626797868
 31
0.0
  0
ARC
  5
1F76
330
1E
100
AcDbEntity
  8
SB
100
AcDbCircle
 10
255.8052589254633
 20
153.8232626797868
 30
0.0
 40
0.5
100
AcDbArc
 50
0.0
 51
180.0
  0
LINE
  5
1F77
330
1E
100
AcDbEntity
  8
SB
100
AcDbLine
 10
256.3052589254633
 20
153.8232626797868
 30
0.0
 11
255.3052589254633
 21
150.8232626797868
 31
0.0
  0
ARC
  5
1F78
330
1E
100
AcDbEntity
  8
SB
100
AcDbCircle
 10
255.8052589254633
 20
150.8232626797868
 30
0.0
 40
0.5
100
AcDbArc
 50
180.0
 51
0.0
  0
LINE
  5
1F79
330
1E
100
AcDbEntity
  8
SB
100
AcDbLine
 10
256.3052589254633
 20
153.8232626797868
 30
0.0
 11
255.3052589254633
 21
150.8232626797868
 31
0.0
  0
ARC
  5
1F7A
330
1E
100
AcDbEntity
  8
SB
100
AcDbCircle
 10
256.8052589254633
 20
153.8232626797868
 30
0.0
 40
0.5
100
AcDbArc
 50
0.0
 51
180.0
  0
LINE
  5
1F7B
330
1E
100
AcDbEntity
  8
SB
100
AcDbLine
 10
257.3052589254633
 20
153.8232626797868
 30
0.0
 11
256.3052589254633
 21
150.8232626797868
 31
0.0
  0
ARC
  5
1F7C
330
1E
100
AcDbEntity
  8
SB
100
AcDbCircle
 10
256.8052589254633
 20
150.8232626797868
 30
0.0
 40
0.5
100
AcDbArc
 50
180.0
 51
0.0
  0
LINE
  5
1F7D
330
1E
100
AcDbEntity
  8
SB
100
AcDbLine
 10
257.3052589254633
 20
153.8232626797868
 30
0.0
 11
256.3052589254633
 21
150.8232626797868
 31
0.0
  0
ARC
  5
1F7E
330
1E
100
AcDbEntity
  8
SB
100
AcDbCircle
 10
257.8052589254633
 20
153.8232626797868
 30
0.0
 40
0.5
100
AcDbArc
 50
0.0
 51
180.0
  0
LINE
  5
1F7F
330
1E
100
AcDbEntity
  8
SB
100
AcDbLine
 10
258.3052589254633
 20
153.8232626797868
 30
0.0
 11
257.3052589254633
 21
150.8232626797868
 31
0.0
  0
ARC
  5
1F80
330
1E
100
AcDbEntity
  8
SB
100
AcDbCircle
 10
257.8052589254633
 20
150.8232626797868
 30
0.0
 40
0.5
100
AcDbArc
 50
180.0
 51
0.0
  0
LINE
  5
1F81
330
1E
100
AcDbEntity
  8
SB
100
AcDbLine
 10
258.3052589254633
 20
153.8232626797868
 30
0.0
 11
257.3052589254633
 21
150.8232626797868
 31
0.0
  0
ARC
  5
1F82
330
1E
100
AcDbEntity
  8
SB
100
AcDbCircle
 10
258.8052589254633
 20
153.8232626797868
 30
0.0
 40
0.5
100
AcDbArc
 50
0.0
 51
180.0
  0
LINE
  5
1F83
330
1E
100
AcDbEntity
  8
SB
100
AcDbLine
 10
259.3052589254633
 20
153.8232626797868
 30
0.0
 11
258.3052589254633
 21
150.8232626797868
 31
0.0
  0
ARC
  5
1F84
330
1E
100
AcDbEntity
  8
SB
100
AcDbCircle
 10
258.8052589254633
 20
150.8232626797868
 30
0.0
 40
0.5
100
AcDbArc
 50
180.0
 51
0.0
  0
LINE
  5
1F85
330
1E
100
AcDbEntity
  8
SB
100
AcDbLine
 10
259.3052589254633
 20
153.8232626797868
 30
0.0
 11
258.3052589254633
 21
150.8232626797868
 31
0.0
  0
ARC
  5
1F86
330
1E
100
AcDbEntity
  8
SB
100
AcDbCircle
 10
259.8052589254633
 20
153.8232626797868
 30
0.0
 40
0.5
100
AcDbArc
 50
0.0
 51
180.0
  0
LINE
  5
1F87
330
1E
100
AcDbEntity
  8
SB
100
AcDbLine
 10
260.3052589254633
 20
153.8232626797868
 30
0.0
 11
259.3052589254633
 21
150.8232626797868
 31
0.0
  0
ARC
  5
1F88
330
1E
100
AcDbEntity
  8
SB
100
AcDbCircle
 10
259.8052589254633
 20
150.8232626797868
 30
0.0
 40
0.5
100
AcDbArc
 50
180.0
 51
0.0
  0
LINE
  5
1F89
330
1E
100
AcDbEntity
  8
SB
100
AcDbLine
 10
260.3052589254633
 20
153.8232626797868
 30
0.0
 11
259.3052589254633
 21
150.8232626797868
 31
0.0
  0
ARC
  5
1F8A
330
1E
100
AcDbEntity
  8
SB
100
AcDbCircle
 10
260.8052589254633
 20
153.8232626797868
 30
0.0
 40
0.5
100
AcDbArc
 50
0.0
 51
180.0
  0
LINE
  5
1F8B
330
1E
100
AcDbEntity
  8
SB
100
AcDbLine
 10
261.3052589254633
 20
153.8232626797868
 30
0.0
 11
260.3052589254633
 21
150.8232626797868
 31
0.0
  0
ARC
  5
1F8C
330
1E
100
AcDbEntity
  8
SB
100
AcDbCircle
 10
260.8052589254633
 20
150.8232626797868
 30
0.0
 40
0.5
100
AcDbArc
 50
180.0
 51
0.0
  0
LINE
  5
1F8D
330
1E
100
AcDbEntity
  8
SB
100
AcDbLine
 10
261.3052589254633
 20
153.8232626797868
 30
0.0
 11
260.3052589254633
 21
150.8232626797868
 31
0.0
  0
ARC
  5
1F8E
330
1E
100
AcDbEntity
  8
SB
100
AcDbCircle
 10
261.8052589254633
 20
153.8232626797868
 30
0.0
 40
0.5
100
AcDbArc
 50
0.0
 51
180.0
  0
LINE
  5
1F8F
330
1E
100
AcDbEntity
  8
SB
100
AcDbLine
 10
262.3052589254633
 20
153.8232626797868
 30
0.0
 11
261.3052589254633
 21
150.8232626797868
 31
0.0
  0
ARC
  5
1F90
330
1E
100
AcDbEntity
  8
SB
100
AcDbCircle
 10
261.8052589254633
 20
150.8232626797868
 30
0.0
 40
0.5
100
AcDbArc
 50
180.0
 51
0.0
  0
LINE
  5
1F91
330
1E
100
AcDbEntity
  8
SB
100
AcDbLine
 10
262.3052589254633
 20
153.8232626797868
 30
0.0
 11
261.3052589254633
 21
150.8232626797868
 31
0.0
  0
ARC
  5
1F92
330
1E
100
AcDbEntity
  8
SB
100
AcDbCircle
 10
262.8052589254633
 20
153.8232626797868
 30
0.0
 40
0.5
100
AcDbArc
 50
0.0
 51
180.0
  0
LINE
  5
1F93
330
1E
100
AcDbEntity
  8
SB
100
AcDbLine
 10
263.3052589254633
 20
153.8232626797868
 30
0.0
 11
262.3052589254633
 21
150.8232626797868
 31
0.0
  0
ARC
  5
1F94
330
1E
100
AcDbEntity
  8
SB
100
AcDbCircle
 10
262.8052589254633
 20
150.8232626797868
 30
0.0
 40
0.5
100
AcDbArc
 50
180.0
 51
0.0
  0
LINE
  5
1F95
330
1E
100
AcDbEntity
  8
SB
100
AcDbLine
 10
263.3052589254633
 20
153.8232626797868
 30
0.0
 11
262.3052589254633
 21
150.8232626797868
 31
0.0
  0
ARC
  5
1F96
330
1E
100
AcDbEntity
  8
SB
100
AcDbCircle
 10
263.8052589254633
 20
153.8232626797868
 30
0.0
 40
0.5
100
AcDbArc
 50
0.0
 51
180.0
  0
LINE
  5
1F97
330
1E
100
AcDbEntity
  8
SB
100
AcDbLine
 10
264.3052589254633
 20
153.8232626797868
 30
0.0
 11
263.3052589254633
 21
150.8232626797868
 31
0.0
  0
ARC
  5
1F98
330
1E
100
AcDbEntity
  8
SB
100
AcDbCircle
 10
263.8052589254633
 20
150.8232626797868
 30
0.0
 40
0.5
100
AcDbArc
 50
180.0
 51
0.0
  0
LINE
  5
1F99
330
1E
100
AcDbEntity
  8
SB
100
AcDbLine
 10
264.3052589254633
 20
153.8232626797868
 30
0.0
 11
263.3052589254633
 21
150.8232626797868
 31
0.0
  0
ARC
  5
1F9A
330
1E
100
AcDbEntity
  8
SB
100
AcDbCircle
 10
264.8052589254633
 20
153.8232626797868
 30
0.0
 40
0.5
100
AcDbArc
 50
0.0
 51
180.0
  0
LINE
  5
1F9B
330
1E
100
AcDbEntity
  8
SB
100
AcDbLine
 10
265.3052589254633
 20
153.8232626797868
 30
0.0
 11
264.3052589254633
 21
150.8232626797868
 31
0.0
  0
ARC
  5
1F9C
330
1E
100
AcDbEntity
  8
SB
100
AcDbCircle
 10
264.8052589254633
 20
150.8232626797868
 30
0.0
 40
0.5
100
AcDbArc
 50
180.0
 51
0.0
  0
LINE
  5
1F9D
330
1E
100
AcDbEntity
  8
SB
100
AcDbLine
 10
265.3052589254633
 20
153.8232626797868
 30
0.0
 11
264.3052589254633
 21
150.8232626797868
 31
0.0
  0
ARC
  5
1F9E
330
1E
100
AcDbEntity
  8
SB
100
AcDbCircle
 10
265.8052589254633
 20
153.8232626797868
 30
0.0
 40
0.5
100
AcDbArc
 50
0.0
 51
180.0
  0
LINE
  5
1F9F
330
1E
100
AcDbEntity
  8
SB
100
AcDbLine
 10
266.3052589254633
 20
153.8232626797868
 30
0.0
 11
265.3052589254633
 21
150.8232626797868
 31
0.0
  0
ARC
  5
1FA0
330
1E
100
AcDbEntity
  8
SB
100
AcDbCircle
 10
265.8052589254633
 20
150.8232626797868
 30
0.0
 40
0.5
100
AcDbArc
 50
180.0
 51
0.0
  0
LINE
  5
1FA1
330
1E
100
AcDbEntity
  8
SB
100
AcDbLine
 10
266.3052589254633
 20
153.8232626797868
 30
0.0
 11
265.3052589254633
 21
150.8232626797868
 31
0.0
  0
ARC
  5
1FA2
330
1E
100
AcDbEntity
  8
SB
100
AcDbCircle
 10
266.8052589254633
 20
153.8232626797868
 30
0.0
 40
0.5
100
AcDbArc
 50
0.0
 51
180.0
  0
LINE
  5
1FA3
330
1E
100
AcDbEntity
  8
SB
100
AcDbLine
 10
267.3052589254633
 20
153.8232626797868
 30
0.0
 11
266.3052589254633
 21
150.8232626797868
 31
0.0
  0
ARC
  5
1FA4
330
1E
100
AcDbEntity
  8
SB
100
AcDbCircle
 10
266.8052589254633
 20
150.8232626797868
 30
0.0
 40
0.5
100
AcDbArc
 50
180.0
 51
0.0
  0
LINE
  5
1FA5
330
1E
100
AcDbEntity
  8
SB
100
AcDbLine
 10
267.3052589254633
 20
153.8232626797868
 30
0.0
 11
266.3052589254633
 21
150.8232626797868
 31
0.0
  0
ARC
  5
1FA6
330
1E
100
AcDbEntity
  8
SB
100
AcDbCircle
 10
267.8052589254633
 20
153.8232626797868
 30
0.0
 40
0.5
100
AcDbArc
 50
0.0
 51
180.0
  0
LINE
  5
1FA7
330
1E
100
AcDbEntity
  8
SB
100
AcDbLine
 10
268.3052589254633
 20
153.8232626797868
 30
0.0
 11
267.3052589254633
 21
150.8232626797868
 31
0.0
  0
ARC
  5
1FA8
330
1E
100
AcDbEntity
  8
SB
100
AcDbCircle
 10
267.8052589254633
 20
150.8232626797868
 30
0.0
 40
0.5
100
AcDbArc
 50
180.0
 51
0.0
  0
LINE
  5
1FA9
330
1E
100
AcDbEntity
  8
SB
100
AcDbLine
 10
268.3052589254633
 20
153.8232626797868
 30
0.0
 11
267.3052589254633
 21
150.8232626797868
 31
0.0
  0
ARC
  5
1FAA
330
1E
100
AcDbEntity
  8
SB
100
AcDbCircle
 10
268.8052589254633
 20
153.8232626797868
 30
0.0
 40
0.5
100
AcDbArc
 50
0.0
 51
180.0
  0
LINE
  5
1FAB
330
1E
100
AcDbEntity
  8
SB
100
AcDbLine
 10
269.3052589254633
 20
153.8232626797868
 30
0.0
 11
268.3052589254633
 21
150.8232626797868
 31
0.0
  0
ARC
  5
1FAC
330
1E
100
AcDbEntity
  8
SB
100
AcDbCircle
 10
268.8052589254633
 20
150.8232626797868
 30
0.0
 40
0.5
100
AcDbArc
 50
180.0
 51
0.0
  0
LINE
  5
1FAD
330
1E
100
AcDbEntity
  8
SB
100
AcDbLine
 10
269.3052589254633
 20
153.8232626797868
 30
0.0
 11
268.3052589254633
 21
150.8232626797868
 31
0.0
  0
ARC
  5
1FAE
330
1E
100
AcDbEntity
  8
SB
100
AcDbCircle
 10
269.8052589254633
 20
153.8232626797868
 30
0.0
 40
0.5
100
AcDbArc
 50
0.0
 51
180.0
  0
LINE
  5
1FAF
330
1E
100
AcDbEntity
  8
SB
100
AcDbLine
 10
270.3052589254633
 20
153.8232626797868
 30
0.0
 11
269.3052589254633
 21
150.8232626797868
 31
0.0
  0
ARC
  5
1FB0
330
1E
100
AcDbEntity
  8
SB
100
AcDbCircle
 10
269.8052589254633
 20
150.8232626797868
 30
0.0
 40
0.5
100
AcDbArc
 50
180.0
 51
0.0
  0
LINE
  5
1FB1
330
1E
100
AcDbEntity
  8
SB
100
AcDbLine
 10
270.3052589254633
 20
153.8232626797868
 30
0.0
 11
269.3052589254633
 21
150.8232626797868
 31
0.0
  0
ARC
  5
1FB2
330
1E
100
AcDbEntity
  8
SB
100
AcDbCircle
 10
270.8052589254633
 20
153.8232626797868
 30
0.0
 40
0.5
100
AcDbArc
 50
0.0
 51
180.0
  0
LINE
  5
1FB3
330
1E
100
AcDbEntity
  8
SB
100
AcDbLine
 10
271.3052589254633
 20
153.8232626797868
 30
0.0
 11
270.3052589254633
 21
150.8232626797868
 31
0.0
  0
ARC
  5
1FB4
330
1E
100
AcDbEntity
  8
SB
100
AcDbCircle
 10
270.8052589254633
 20
150.8232626797868
 30
0.0
 40
0.5
100
AcDbArc
 50
180.0
 51
0.0
  0
LINE
  5
1FB5
330
1E
100
AcDbEntity
  8
SB
100
AcDbLine
 10
271.3052589254633
 20
153.8232626797868
 30
0.0
 11
270.3052589254633
 21
150.8232626797868
 31
0.0
  0
ARC
  5
1FB6
330
1E
100
AcDbEntity
  8
SB
100
AcDbCircle
 10
271.8052589254633
 20
153.8232626797868
 30
0.0
 40
0.5
100
AcDbArc
 50
0.0
 51
180.0
  0
LINE
  5
1FB7
330
1E
100
AcDbEntity
  8
SB
100
AcDbLine
 10
272.3052589254633
 20
153.8232626797868
 30
0.0
 11
271.3052589254633
 21
150.8232626797868
 31
0.0
  0
ARC
  5
1FB8
330
1E
100
AcDbEntity
  8
SB
100
AcDbCircle
 10
271.8052589254633
 20
150.8232626797868
 30
0.0
 40
0.5
100
AcDbArc
 50
180.0
 51
0.0
  0
LINE
  5
1FB9
330
1E
100
AcDbEntity
  8
SB
100
AcDbLine
 10
272.3052589254633
 20
153.8232626797868
 30
0.0
 11
271.3052589254633
 21
150.8232626797868
 31
0.0
  0
ARC
  5
1FBA
330
1E
100
AcDbEntity
  8
SB
100
AcDbCircle
 10
272.8052589254633
 20
153.8232626797868
 30
0.0
 40
0.5
100
AcDbArc
 50
0.0
 51
180.0
  0
LINE
  5
1FBB
330
1E
100
AcDbEntity
  8
SB
100
AcDbLine
 10
273.3052589254633
 20
153.8232626797868
 30
0.0
 11
272.3052589254633
 21
150.8232626797868
 31
0.0
  0
ARC
  5
1FBC
330
1E
100
AcDbEntity
  8
SB
100
AcDbCircle
 10
272.8052589254633
 20
150.8232626797868
 30
0.0
 40
0.5
100
AcDbArc
 50
180.0
 51
0.0
  0
LINE
  5
1FBD
330
1E
100
AcDbEntity
  8
SB
100
AcDbLine
 10
273.3052589254633
 20
153.8232626797868
 30
0.0
 11
272.3052589254633
 21
150.8232626797868
 31
0.0
  0
ARC
  5
1FBE
330
1E
100
AcDbEntity
  8
SB
100
AcDbCircle
 10
273.8052589254633
 20
153.8232626797868
 30
0.0
 40
0.5
100
AcDbArc
 50
0.0
 51
180.0
  0
LINE
  5
1FBF
330
1E
100
AcDbEntity
  8
SB
100
AcDbLine
 10
274.3052589254633
 20
153.8232626797868
 30
0.0
 11
273.3052589254633
 21
150.8232626797868
 31
0.0
  0
LINE
  5
1FC0
330
1E
100
AcDbEntity
  8
SB
100
AcDbLine
 10
275.3052589254633
 20
153.8232626797868
 30
0.0
 11
274.3052589254633
 21
150.8232626797868
 31
0.0
  0
LINE
  5
1FC1
330
1E
100
AcDbEntity
  8
SB
100
AcDbLine
 10
274.3052589254633
 20
153.8232626797868
 30
0.0
 11
273.3052589254633
 21
150.8232626797868
 31
0.0
  0
ARC
  5
1FC2
330
1E
100
AcDbEntity
  8
SB
100
AcDbCircle
 10
273.8052589254633
 20
150.8232626797868
 30
0.0
 40
0.5
100
AcDbArc
 50
180.0
 51
0.0
  0
ARC
  5
1FC3
330
1E
100
AcDbEntity
  8
SB
100
AcDbCircle
 10
274.8052589254633
 20
153.8232626797868
 30
0.0
 40
0.5
100
AcDbArc
 50
0.0
 51
180.0
  0
LINE
  5
1FC4
330
1E
100
AcDbEntity
  8
SA
100
AcDbLine
 10
377.0422589254632
 20
151.3232626797868
 30
0.0
 11
297.0422589254631
 21
151.3232626797868
 31
0.0
  0
LINE
  5
1FC5
330
1E
100
AcDbEntity
  8
SA
100
AcDbLine
 10
297.0422589254631
 20
153.3232626797868
 30
0.0
 11
377.0422589254632
 21
153.3232626797868
 31
0.0
  0
LINE
  5
1FC6
330
1E
100
AcDbEntity
  8
SA
100
AcDbLine
 10
297.0422589254631
 20
153.8232626797868
 30
0.0
 11
297.0422589254631
 21
153.3232626797868
 31
0.0
  0
LINE
  5
1FC7
330
1E
100
AcDbEntity
  8
SA
100
AcDbLine
 10
297.0422589254631
 20
150.8232626797868
 30
0.0
 11
275.3052589254633
 21
150.8232626797868
 31
0.0
  0
LINE
  5
1FC8
330
1E
100
AcDbEntity
  8
SA
100
AcDbLine
 10
297.0422589254631
 20
153.8232626797868
 30
0.0
 11
297.0422589254631
 21
150.8232626797868
 31
0.0
  0
LINE
  5
1FC9
330
1E
100
AcDbEntity
  8
SA
100
AcDbLine
 10
275.3052589254633
 20
153.8232626797868
 30
0.0
 11
297.0422589254631
 21
153.8232626797868
 31
0.0
  0
POINT
  5
1FCA
330
1E
100
AcDbEntity
  8
0
100
AcDbPoint
 10
107.2602589254632
 20
159.4590002580426
 30
0.0
  0
LINE
  5
1FCB
330
1E
100
AcDbEntity
  8
SA
100
AcDbLine
 10
222.2422589254632
 20
166.3450000478688
 30
0.0
 11
222.0422589254633
 21
166.1450000478688
 31
0.0
  0
LINE
  5
1FCC
330
1E
100
AcDbEntity
  8
SA
100
AcDbLine
 10
222.0422589254633
 20
146.5450000478688
 30
0.0
 11
222.2422589254632
 21
146.3450000478688
 31
0.0
  0
LINE
  5
1FCD
330
1E
100
AcDbEntity
  8
SA
100
AcDbLine
 10
246.8422589254632
 20
146.3450000478688
 30
0.0
 11
247.0422589254633
 21
146.5450000478688
 31
0.0
  0
LINE
  5
1FCE
330
1E
100
AcDbEntity
  8
SA
100
AcDbLine
 10
246.8422589254632
 20
166.3450000478688
 30
0.0
 11
247.0422589254631
 21
166.1450000478688
 31
0.0
  0
LEADER
  5
1FD8
330
1E
100
AcDbEntity
  8
SC
100
AcDbLeader
  3
Standard
 76
     2
 10
232.1300638686841
 20
166.3467597322547
 30
0.0
 10
247.6896792134926
 20
202.1861086362975
 30
0.0
1001
ACAD
1000
DSTYLE
1002
{
1070
   147
1040
0.09
1070
    77
1070
     0
1002
}
  0
LEADER
  5
1FD9
330
1E
100
AcDbEntity
  8
SC
100
AcDbLeader
  3
Standard
 76
     2
 10
154.3252589254633
 20
159.9030000478688
 30
0.0
 10
169.6172589254632
 20
190.8150000478688
 30
0.0
1001
ACAD
1000
DSTYLE
1002
{
1070
   341
1005
1C97
1070
   147
1040
0.09
1070
    77
1070
     0
1002
}
  0
LINE
  5
1FF3
330
1E
100
AcDbEntity
  8
SC
100
AcDbLine
 10
169.6172589254632
 20
190.8150000478688
 30
0.0
 11
211.711
 21
190.8150000478688
 31
0.0
  0
TEXT
  5
1FF9
330
1E
100
AcDbEntity
  8
MO
100
AcDbText
 10
171.5581458167872
 20
191.1436888944472
 30
0.0
 40
3.599999999999999
  1
ヒーター SUS304
  7
0
100
AcDbText
  0
LINE
  5
1FFB
330
1E
100
AcDbEntity
  8
SC
100
AcDbLine
 10
247.6896792134926
 20
202.1861086362975
 30
0.0
 11
294.837
 21
202.1861086362975
 31
0.0
  0
TEXT
  5
2002
330
1E
100
AcDbEntity
  8
MO
100
AcDbText
 10
250.9089995978117
 20
202.1861086746851
 30
0.0
 40
3.599999999999999
  1
ローレットストッパー
  7
0
100
AcDbText
  0
TEXT
  5
2009
330
1E
100
AcDbEntity
  8
MO
100
AcDbText
 10
299.6659995206928
 20
192.5669998345992
 30
0.0
 40
3.599999999999999
  1
シリコンガラスチューブ
  7
0
100
AcDbText
  0
TEXT
  5
200F
330
1E
100
AcDbEntity
  8
MO
100
AcDbText
 10
333.2909994653011
 20
188.7940001417534
 30
0.0
 40
2.799999999999999
  1
SRG-1
  7
0
100
AcDbText
  0
LINE
  5
2010
330
1E
100
AcDbEntity
  8
SC
100
AcDbLine
 10
318.801016024465
 20
161.1677880920284
 30
0.0
 11
323.3691379671452
 21
175.8806910480683
 31
0.0
1001
ACAD
1000
DSTYLE
1002
{
1070
   147
1040
0.09
1070
    77
1070
     0
1002
}
  0
LINE
  5
2011
330
1E
100
AcDbEntity
  8
SC
100
AcDbLine
 10
323.3691379671452
 20
175.8806910480683
 30
0.0
 11
347.5260000000001
 21
175.8806910480683
 31
0.0
1001
ACAD
1000
DSTYLE
1002
{
1070
   147
1040
0.09
1070
    77
1070
     0
1002
}
  0
TEXT
  5
2018
330
1E
100
AcDbEntity
  8
MO
100
AcDbText
 10
325.758000236645
 20
176.2640000492841
 30
0.0
 40
2.799999999999999
  1
耐熱リード線
  7
0
100
AcDbText
  0
LINE
  5
2019
330
1E
100
AcDbEntity
  8
SC
100
AcDbLine
 10
72.97142755618928
 20
164.3450000478688
 30
0.0
 11
72.97142755618928
 21
185.884
 31
0.0
  0
TEXT
  5
201F
330
1E
100
AcDbEntity
  8
MO
100
AcDbText
 10
149.6679998869687
 20
131.206000114199
 30
0.0
 40
6.0
  1
B
  7
0
100
AcDbText
  0
TEXT
  5
2025
330
1E
100
AcDbEntity
  8
MO
100
AcDbText
 10
72.32199988580092
 20
173.1509998869688
 30
0.0
 40
6.0
  1
Aφ
 50
90.0
  7
0
100
AcDbText
  0
TEXT
  5
202D
330
1E
100
AcDbEntity
  8
MO
100
AcDbText
 10
339.3787517998727
 20
172.3979999282325
 30
0.0
 40
2.799999999999999
  1
（C）
  7
0
100
AcDbText
  0
TEXT
  5
2035
330
1E
100
AcDbEntity
  8
MO
100
AcDbText
 10
77.7635240194453
 20
32.82492724811003
 30
0.0
 40
3.0625
  1
mm
  7
0
 72
     1
 11
81.55519068611196
 21
32.82492724811003
 31
0.0
100
AcDbText
  0
LINE
  5
2044
330
1E
100
AcDbEntity
  8
SC
100
AcDbLine
 10
222.0422589254633
 20
146.4825000478688
 30
0.0
 11
222.0422589254633
 21
129.6730002580426
 31
0.0
  0
LINE
  5
2045
330
1E
100
AcDbEntity
  8
SC
100
AcDbLine
 10
247.0422589254633
 20
146.4825000478688
 30
0.0
 11
247.0422589254633
 21
129.6730002580426
 31
0.0
  0
LINE
  5
2046
330
1E
100
AcDbEntity
  8
SC
100
AcDbLine
 10
224.0422589254633
 20
129.8530002580426
 30
0.0
 11
239.9655922587966
 21
129.8530002580426
 31
0.0
  0
LINE
  5
2047
330
1E
100
AcDbEntity
  8
SC
100
AcDbLine
 10
245.0422589254633
 20
129.8530002580426
 30
0.0
 11
239.9655922587966
 21
129.8530002580426
 31
0.0
  0
SOLID
  5
2048
330
1E
100
AcDbEntity
  8
SC
100
AcDbTrace
 10
224.0422589254633
 20
130.186333591376
 30
0.0
 11
224.0422589254633
 21
129.5196669247093
 31
0.0
 12
222.0422589254633
 22
129.8530002580426
 32
0.0
 13
222.0422589254633
 23
129.8530002580426
 33
0.0
  0
SOLID
  5
2049
330
1E
100
AcDbEntity
  8
SC
100
AcDbTrace
 10
245.0422589254633
 20
130.186333591376
 30
0.0
 11
245.0422589254633
 21
129.5196669247093
 31
0.0
 12
247.0422589254633
 22
129.8530002580426
 32
0.0
 13
247.0422589254633
 23
129.8530002580426
 33
0.0
  0
TEXT
  5
2051
330
1E
100
AcDbEntity
  8
MO
100
AcDbText
 10
230.3990002627803
 20
130.5061061231293
 30
0.0
 40
6.0
  1
25
  7
0
100
AcDbText
  0
TEXT
  5
2074
330
1E
100
AcDbEntity
  8
MO
100
AcDbText
 10
273.7702715460106
 20
42.96686629518278
 30
0.0
 40
4.375
  1
W
  7
0
 72
     1
 11
275.8536048793439
 21
42.96686629518278
 31
0.0
100
AcDbText
  0
ENDSEC
  0
SECTION
  2
OBJECTS
  0
DICTIONARY
  5
C
330
0
100
AcDbDictionary
281
     1
  3
ACAD_COLOR
350
1793
  3
ACAD_GROUP
350
D
  3
ACAD_LAYOUT
350
19
  3
ACAD_MATERIAL
350
1792
  3
ACAD_MLINESTYLE
350
16
  3
ACAD_PLOTSETTINGS
350
18
  3
ACAD_PLOTSTYLENAME
350
E
  3
ACAD_TABLESTYLE
350
17A5
  3
ACDBHEADERROUNDTRIPXREC
350
2086
  3
AcDbVariableDictionary
350
17B5
  0
DICTIONARY
  5
1793
102
{ACAD_REACTORS
330
C
102
}
330
C
100
AcDbDictionary
281
     1
  0
DICTIONARY
  5
D
102
{ACAD_REACTORS
330
C
102
}
330
C
100
AcDbDictionary
281
     1
  0
DICTIONARY
  5
19
102
{ACAD_REACTORS
330
C
102
}
330
C
100
AcDbDictionary
281
     1
  3
Model
350
21
  3
ﾚｲｱｳﾄ1
350
1D
  0
DICTIONARY
  5
1792
102
{ACAD_REACTORS
330
C
102
}
330
C
100
AcDbDictionary
281
     1
  0
DICTIONARY
  5
16
102
{ACAD_REACTORS
330
C
102
}
330
C
100
AcDbDictionary
281
     1
  3
Standard
350
17
  0
DICTIONARY
  5
18
102
{ACAD_REACTORS
330
C
102
}
330
C
100
AcDbDictionary
281
     1
  0
ACDBDICTIONARYWDFLT
  5
E
102
{ACAD_REACTORS
330
C
102
}
330
C
100
AcDbDictionary
281
     1
  3
Normal
350
F
100
AcDbDictionaryWithDefault
340
F
  0
DICTIONARY
  5
17A5
102
{ACAD_REACTORS
330
C
102
}
330
C
100
AcDbDictionary
281
     1
  3
Standard
350
17A6
  0
DICTIONARY
  5
2086
102
{ACAD_REACTORS
330
C
102
}
330
C
100
AcDbDictionary
281
     1
  3
COLORDICT
350
2088
  3
MATERIALDICT
350
2087
  0
DICTIONARY
  5
17B5
102
{ACAD_REACTORS
330
C
102
}
330
C
100
AcDbDictionary
281
     1
  3
CTABLESTYLE
350
17B6
  3
DIMASSOC
350
1C8D
  3
PROJECTNAME
350
1C8E
  0
LAYOUT
  5
21
102
{ACAD_XDICTIONARY
360
208B
102
}
102
{ACAD_REACTORS
330
19
102
}
330
19
100
AcDbPlotSettings
  1

  2
PrimoPDF
  4
A4
  6
HYOU
 40
3.174999952316284
 41
3.174999952316284
 42
3.175003051757812
 43
3.17498779296875
 44
210.0156707763672
 45
297.0106506347656
 46
-1.0
 47
10.0
 48
0.0
 49
0.0
140
0.0
141
0.0
142
1.0
143
1.458272291292898
 70
 11952
 72
     1
 73
     1
 74
     2
  7
monochrome.ctb
 75
     0
147
0.6857429891323
148
0.0
149
0.0
100
AcDbLayout
  1
Model
 70
     1
 71
     0
 10
0.0
 20
0.0
 11
12.0
 21
9.0
 12
0.0
 22
0.0
 32
0.0
 14
0.0
 24
0.0
 34
0.0
 15
0.0
 25
0.0
 35
0.0
146
0.0
 13
0.0
 23
0.0
 33
0.0
 16
1.0
 26
0.0
 36
0.0
 17
0.0
 27
1.0
 37
0.0
 76
     0
330
1E
1001
ACAD_PSEXT
1000
FX DocuPrint 205
1000
FX DocuPrint 205
1000
USB001
1000

1070
     0
  0
LAYOUT
  5
1D
102
{ACAD_XDICTIONARY
360
2089
102
}
102
{ACAD_REACTORS
330
19
102
}
330
19
100
AcDbPlotSettings
  1

  2
EPSON LP-1500S
  4

  6

 40
0.0
 41
0.0
 42
0.0
 43
0.0
 44
0.0
 45
0.0
 46
0.0
 47
0.0
 48
0.0
 49
0.0
140
0.0
141
0.0
142
1.0
143
1.0
 70
   688
 72
     0
 73
     0
 74
     5
  7
monochrome.ctb
 75
    16
147
1.0
148
0.0
149
0.0
100
AcDbLayout
  1
ﾚｲｱｳﾄ1
 70
     0
 71
     1
 10
0.0
 20
0.0
 11
12.0
 21
9.0
 12
0.0
 22
0.0
 32
0.0
 14
1.000000000000000E+20
 24
1.000000000000000E+20
 34
1.000000000000000E+20
 15
-1.000000000000000E+20
 25
-1.000000000000000E+20
 35
-1.000000000000000E+20
146
0.0
 13
0.0
 23
0.0
 33
0.0
 16
1.0
 26
0.0
 36
0.0
 17
0.0
 27
1.0
 37
0.0
 76
     0
330
1A
  0
MLINESTYLE
  5
17
102
{ACAD_REACTORS
330
16
102
}
330
16
100
AcDbMlineStyle
  2
STANDARD
 70
     0
  3

 62
   256
 51
90.0
 52
90.0
 71
     2
 49
0.5
 62
   256
  6
BYLAYER
 49
-0.5
 62
   256
  6
BYLAYER
  0
ACDBPLACEHOLDER
  5
F
102
{ACAD_REACTORS
330
E
102
}
330
E
  0
ACAD_PROXY_OBJECT
  5
17A6
102
{ACAD_REACTORS
330
17A5
102
}
330
17A5
100
AcDbProxyObject
 90
      499
 91
      503
 95
       25
 70
     0
 93
     1841
310
4214DD185B99185C9928B81E85EB51B8AE3F2E07A17AD46E2B8FC02B5E8DC0F42B1CFD028000000C1008070000C3001FDFF8000000C1003FBFF000000182007F7FE00000030400FEFFC00000060801FDFF8000000C1003FBFF00000018200000000000000681FA0B0000001820100E000186003FBFF000000182007F7FE000
310
00030400FEFFC00000060801FDFF8000000C1003FBFF000000182007F7FE000000304000AD7A3703D0AC73F4160000003040201C00030C007F7FE00000030400FEFFC00000060801FDFF8000000C1003FBFF000000182007F7FE00000030400FEFFC000000608000
340
11
340
11
340
11
 94
        0
1001
ACAD
1000
AcRTDxfName
1000
TABLESTYLE
  0
XRECORD
  5
2088
102
{ACAD_REACTORS
330
2086
102
}
330
2086
100
AcDbXrecord
280
     1
340
1793
  0
XRECORD
  5
2087
102
{ACAD_REACTORS
330
2086
102
}
330
2086
100
AcDbXrecord
280
     1
340
1792
  0
DICTIONARYVAR
  5
17B6
102
{ACAD_REACTORS
330
17B5
102
}
330
17B5
100
DictionaryVariables
280
     0
  1
STANDARD
  0
DICTIONARYVAR
  5
1C8D
102
{ACAD_REACTORS
330
17B5
102
}
330
17B5
100
DictionaryVariables
280
     0
  1
1
  0
DICTIONARYVAR
  5
1C8E
102
{ACAD_REACTORS
330
17B5
102
}
330
17B5
100
DictionaryVariables
280
     0
  1

  0
DICTIONARY
  5
208B
330
21
100
AcDbDictionary
280
     1
281
     1
  3
ACAD_XREC_ROUNDTRIP
360
208C
  0
DICTIONARY
  5
2089
330
1D
100
AcDbDictionary
280
     1
281
     1
  3
ACAD_XREC_ROUNDTRIP
360
208A
  0
XRECORD
  5
208C
102
{ACAD_REACTORS
330
208B
102
}
330
208B
100
AcDbXrecord
280
     1
102
SHADEPLOT
 70
     0
102
SHADEPLOTRESLEVEL
 70
     2
102
SHADEPLOTCUSTOMDPI
 70
   300
  0
XRECORD
  5
208A
102
{ACAD_REACTORS
330
2089
102
}
330
2089
100
AcDbXrecord
280
     1
102
SHADEPLOT
 70
     0
102
SHADEPLOTRESLEVEL
 70
     2
102
SHADEPLOTCUSTOMDPI
 70
   300
  0
ENDSEC
  0
EOF
