  0
SECTION
  2
HEADER
  9
$ACADVER
  1
AC1015
  9
$ACADMAINTVER
 70
    20
  9
$DWGCODEPAGE
  3
ANSI_932
  9
$INSBASE
 10
0.0
 20
0.0
 30
0.0
  9
$EXTMIN
 10
3.191529301916716
 20
2.71005318489631
 30
-0.0000000000000129
  9
$EXTMAX
 10
404.5358285966049
 20
294.199310990981
 30
0.0000000000000023
  9
$LIMMIN
 10
0.0
 20
0.0
  9
$LIMMAX
 10
420.0
 20
297.0
  9
$ORTHOMODE
 70
     1
  9
$REGENMODE
 70
     1
  9
$FILLMODE
 70
     1
  9
$QTEXTMODE
 70
     0
  9
$MIRRTEXT
 70
     1
  9
$LTSCALE
 40
12.0
  9
$ATTMODE
 70
     1
  9
$TEXTSIZE
 40
10.0
  9
$TRACEWID
 40
0.3
  9
$TEXTSTYLE
  7
0
  9
$CLAYER
  8
SC
  9
$CELTYPE
  6
ByLayer
  9
$CECOLOR
 62
   256
  9
$CELTSCALE
 40
1.0
  9
$DISPSILH
 70
     0
  9
$DIMSCALE
 40
1.0
  9
$DIMASZ
 40
2.0
  9
$DIMEXO
 40
0.0625
  9
$DIMDLI
 40
0.38
  9
$DIMRND
 40
0.0
  9
$DIMDLE
 40
0.0
  9
$DIMEXE
 40
0.18
  9
$DIMTP
 40
0.0
  9
$DIMTM
 40
0.0
  9
$DIMTXT
 40
2.0
  9
$DIMCEN
 40
0.09
  9
$DIMTSZ
 40
0.0
  9
$DIMTOL
 70
     0
  9
$DIMLIM
 70
     0
  9
$DIMTIH
 70
     1
  9
$DIMTOH
 70
     1
  9
$DIMSE1
 70
     0
  9
$DIMSE2
 70
     0
  9
$DIMTAD
 70
     0
  9
$DIMZIN
 70
     0
  9
$DIMBLK
  1

  9
$DIMASO
 70
     1
  9
$DIMSHO
 70
     0
  9
$DIMPOST
  1

  9
$DIMAPOST
  1

  9
$DIMALT
 70
     0
  9
$DIMALTD
 70
     2
  9
$DIMALTF
 40
25.4
  9
$DIMLFAC
 40
1.0
  9
$DIMTOFL
 70
     0
  9
$DIMTVP
 40
0.0
  9
$DIMTIX
 70
     0
  9
$DIMSOXD
 70
     0
  9
$DIMSAH
 70
     0
  9
$DIMBLK1
  1

  9
$DIMBLK2
  1

  9
$DIMSTYLE
  2
Standard
  9
$DIMCLRD
 70
     0
  9
$DIMCLRE
 70
     0
  9
$DIMCLRT
 70
     0
  9
$DIMTFAC
 40
1.0
  9
$DIMGAP
 40
0.09
  9
$DIMJUST
 70
     0
  9
$DIMSD1
 70
     0
  9
$DIMSD2
 70
     0
  9
$DIMTOLJ
 70
     1
  9
$DIMTZIN
 70
     0
  9
$DIMALTZ
 70
     0
  9
$DIMALTTZ
 70
     0
  9
$DIMUPT
 70
     0
  9
$DIMDEC
 70
     4
  9
$DIMTDEC
 70
     4
  9
$DIMALTU
 70
     2
  9
$DIMALTTD
 70
     2
  9
$DIMTXSTY
  7
STANDARD
  9
$DIMAUNIT
 70
     0
  9
$DIMADEC
 70
     0
  9
$DIMALTRND
 40
0.0
  9
$DIMAZIN
 70
     0
  9
$DIMDSEP
 70
    46
  9
$DIMATFIT
 70
     3
  9
$DIMFRAC
 70
     0
  9
$DIMLDRBLK
  1

  9
$DIMLUNIT
 70
     2
  9
$DIMLWD
 70
    -2
  9
$DIMLWE
 70
    -2
  9
$DIMTMOVE
 70
     0
  9
$LUNITS
 70
     2
  9
$LUPREC
 70
     4
  9
$SKETCHINC
 40
0.1
  9
$FILLETRAD
 40
0.0
  9
$AUNITS
 70
     0
  9
$AUPREC
 70
     1
  9
$MENU
  1
ACAD
  9
$ELEVATION
 40
0.0
  9
$PELEVATION
 40
0.0
  9
$THICKNESS
 40
0.0
  9
$LIMCHECK
 70
     0
  9
$CHAMFERA
 40
0.0
  9
$CHAMFERB
 40
0.0
  9
$CHAMFERC
 40
0.0
  9
$CHAMFERD
 40
0.0
  9
$SKPOLY
 70
     0
  9
$TDCREATE
 40
2450808.702418171
  9
$TDUCREATE
 40
2450808.327418172
  9
$TDUPDATE
 40
2456199.716851123
  9
$TDUUPDATE
 40
2456199.341851123
  9
$TDINDWG
 40
1.7242644676
  9
$TDUSRTIMER
 40
1.7242644676
  9
$USRTIMER
 70
     1
  9
$ANGBASE
 50
0.0
  9
$ANGDIR
 70
     0
  9
$PDMODE
 70
     0
  9
$PDSIZE
 40
0.0
  9
$PLINEWID
 40
1.0
  9
$SPLFRAME
 70
     0
  9
$SPLINETYPE
 70
     6
  9
$SPLINESEGS
 70
     8
  9
$HANDSEED
  5
1FD3
  9
$SURFTAB1
 70
     6
  9
$SURFTAB2
 70
     6
  9
$SURFTYPE
 70
     6
  9
$SURFU
 70
     6
  9
$SURFV
 70
     6
  9
$UCSBASE
  2

  9
$UCSNAME
  2

  9
$UCSORG
 10
0.0
 20
0.0
 30
0.0
  9
$UCSXDIR
 10
1.0
 20
0.0
 30
0.0
  9
$UCSYDIR
 10
0.0
 20
1.0
 30
0.0
  9
$UCSORTHOREF
  2

  9
$UCSORTHOVIEW
 70
     0
  9
$UCSORGTOP
 10
0.0
 20
0.0
 30
0.0
  9
$UCSORGBOTTOM
 10
0.0
 20
0.0
 30
0.0
  9
$UCSORGLEFT
 10
0.0
 20
0.0
 30
0.0
  9
$UCSORGRIGHT
 10
0.0
 20
0.0
 30
0.0
  9
$UCSORGFRONT
 10
0.0
 20
0.0
 30
0.0
  9
$UCSORGBACK
 10
0.0
 20
0.0
 30
0.0
  9
$PUCSBASE
  2

  9
$PUCSNAME
  2

  9
$PUCSORG
 10
0.0
 20
0.0
 30
0.0
  9
$PUCSXDIR
 10
1.0
 20
0.0
 30
0.0
  9
$PUCSYDIR
 10
0.0
 20
1.0
 30
0.0
  9
$PUCSORTHOREF
  2

  9
$PUCSORTHOVIEW
 70
     0
  9
$PUCSORGTOP
 10
0.0
 20
0.0
 30
0.0
  9
$PUCSORGBOTTOM
 10
0.0
 20
0.0
 30
0.0
  9
$PUCSORGLEFT
 10
0.0
 20
0.0
 30
0.0
  9
$PUCSORGRIGHT
 10
0.0
 20
0.0
 30
0.0
  9
$PUCSORGFRONT
 10
0.0
 20
0.0
 30
0.0
  9
$PUCSORGBACK
 10
0.0
 20
0.0
 30
0.0
  9
$USERI1
 70
     0
  9
$USERI2
 70
     0
  9
$USERI3
 70
     0
  9
$USERI4
 70
     0
  9
$USERI5
 70
     0
  9
$USERR1
 40
0.0
  9
$USERR2
 40
0.0
  9
$USERR3
 40
0.0
  9
$USERR4
 40
0.0
  9
$USERR5
 40
0.0
  9
$WORLDVIEW
 70
     1
  9
$SHADEDGE
 70
     3
  9
$SHADEDIF
 70
    70
  9
$TILEMODE
 70
     1
  9
$MAXACTVP
 70
    16
  9
$PINSBASE
 10
0.0
 20
0.0
 30
0.0
  9
$PLIMCHECK
 70
     0
  9
$PEXTMIN
 10
1.000000000000000E+20
 20
1.000000000000000E+20
 30
1.000000000000000E+20
  9
$PEXTMAX
 10
-1.000000000000000E+20
 20
-1.000000000000000E+20
 30
-1.000000000000000E+20
  9
$PLIMMIN
 10
0.0
 20
0.0
  9
$PLIMMAX
 10
12.0
 20
9.0
  9
$UNITMODE
 70
     0
  9
$VISRETAIN
 70
     0
  9
$PLINEGEN
 70
     0
  9
$PSLTSCALE
 70
     0
  9
$TREEDEPTH
 70
  3020
  9
$CMLSTYLE
  2
Standard
  9
$CMLJUST
 70
     0
  9
$CMLSCALE
 40
1.0
  9
$PROXYGRAPHICS
 70
     1
  9
$MEASUREMENT
 70
     0
  9
$CELWEIGHT
370
    -1
  9
$ENDCAPS
280
     0
  9
$JOINSTYLE
280
     0
  9
$LWDISPLAY
290
     0
  9
$INSUNITS
 70
     0
  9
$HYPERLINKBASE
  1

  9
$STYLESHEET
  1
monochrome.ctb
  9
$XEDIT
290
     1
  9
$CEPSNTYPE
380
     0
  9
$PSTYLEMODE
290
     1
  9
$FINGERPRINTGUID
  2
{51BC8342-4694-11D4-A1F9-0060672295C7}
  9
$VERSIONGUID
  2
{7A106BC6-82D6-423F-B7A6-371AB0DCF600}
  9
$EXTNAMES
290
     1
  9
$PSVPSCALE
 40
0.0
  9
$OLESTARTUP
290
     0
  0
ENDSEC
  0
SECTION
  2
CLASSES
  0
CLASS
  1
ACDBDICTIONARYWDFLT
  2
AcDbDictionaryWithDefault
  3
ObjectDBX Classes
 90
        0
280
     0
281
     0
  0
CLASS
  1
ACDBPLACEHOLDER
  2
AcDbPlaceHolder
  3
ObjectDBX Classes
 90
        0
280
     0
281
     0
  0
CLASS
  1
LAYOUT
  2
AcDbLayout
  3
ObjectDBX Classes
 90
        0
280
     0
281
     0
  0
CLASS
  1
TABLESTYLE
  2
AcDbTableStyle
  3
ObjectDBX Classes
 90
     2047
280
     0
281
     0
  0
CLASS
  1
DICTIONARYVAR
  2
AcDbDictionaryVar
  3
ObjectDBX Classes
 90
        0
280
     0
281
     0
  0
ENDSEC
  0
SECTION
  2
TABLES
  0
TABLE
  2
VPORT
  5
8
330
0
100
AcDbSymbolTable
 70
     6
  0
VPORT
  5
1FCB
330
8
100
AcDbSymbolTableRecord
100
AcDbViewportTableRecord
  2
*Active
 70
     0
 10
0.0
 20
0.0
 11
1.0
 21
1.0
 12
210.0
 22
148.5
 13
0.0
 23
0.0
 14
0.001
 24
0.001
 15
10.0
 25
10.0
 16
0.0
 26
0.0
 36
1.0
 17
0.0
 27
0.0
 37
0.0
 40
300.6
 41
2.417004048582995
 42
50.0
 43
0.0
 44
0.0
 50
0.0
 51
0.0
 71
     0
 72
  2000
 73
     1
 74
     0
 75
     1
 76
     1
 77
     0
 78
     2
281
     0
 65
     1
110
0.0
120
0.0
130
0.0
111
1.0
121
0.0
131
0.0
112
0.0
122
1.0
132
0.0
 79
     0
146
0.0
  0
ENDTAB
  0
TABLE
  2
LTYPE
  5
5
330
0
100
AcDbSymbolTable
 70
     4
  0
LTYPE
  5
13
330
5
100
AcDbSymbolTableRecord
100
AcDbLinetypeTableRecord
  2
ByBlock
 70
     0
  3

 72
    65
 73
     0
 40
0.0
  0
LTYPE
  5
14
330
5
100
AcDbSymbolTableRecord
100
AcDbLinetypeTableRecord
  2
ByLayer
 70
     0
  3

 72
    65
 73
     0
 40
0.0
  0
LTYPE
  5
15
330
5
100
AcDbSymbolTableRecord
100
AcDbLinetypeTableRecord
  2
CONTINUOUS
 70
     0
  3
実線
 72
    65
 73
     0
 40
0.0
  0
LTYPE
  5
23
330
5
100
AcDbSymbolTableRecord
100
AcDbLinetypeTableRecord
  2
CENTER
 70
     0
  3
____ _ ____ _ ____ _ ____ _ ____ _ ____ _ ____
 72
    65
 73
     4
 40
2.0
 49
1.25
 74
     0
 49
-0.25
 74
     0
 49
0.25
 74
     0
 49
-0.25
 74
     0
  0
LTYPE
  5
24
330
5
100
AcDbSymbolTableRecord
100
AcDbLinetypeTableRecord
  2
HIDDEN
 70
     0
  3
_ _ _ _ _ _ _ _ _ _ _ _ _ _ _ _ _ _ _ _ _ _ _
 72
    65
 73
     2
 40
0.375
 49
0.25
 74
     0
 49
-0.125
 74
     0
  0
LTYPE
  5
1C0C
330
5
100
AcDbSymbolTableRecord
100
AcDbLinetypeTableRecord
  2
PHANTOM2
 70
     0
  3
Phantom (.5x) ___ _ _ ___ _ _ ___ _ _ ___ _ _
 72
    65
 73
     6
 40
1.25
 49
0.625
 74
     0
 49
-0.125
 74
     0
 49
0.125
 74
     0
 49
-0.125
 74
     0
 49
0.125
 74
     0
 49
-0.125
 74
     0
  0
ENDTAB
  0
TABLE
  2
LAYER
  5
2
330
0
100
AcDbSymbolTable
 70
     9
  0
LAYER
  5
10
330
2
100
AcDbSymbolTableRecord
100
AcDbLayerTableRecord
  2
0
 70
     0
 62
     7
  6
CONTINUOUS
370
    -3
390
F
  0
LAYER
  5
28
330
2
100
AcDbSymbolTableRecord
100
AcDbLayerTableRecord
  2
HO
 70
     0
 62
     2
  6
CENTER
370
    13
390
F
  0
LAYER
  5
29
330
2
100
AcDbSymbolTableRecord
100
AcDbLayerTableRecord
  2
HA
 70
     0
 62
     4
  6
HIDDEN
370
    13
390
F
  0
LAYER
  5
2A
330
2
100
AcDbSymbolTableRecord
100
AcDbLayerTableRecord
  2
SB
 70
     0
 62
     1
  6
CONTINUOUS
370
    20
390
F
  0
LAYER
  5
2B
330
2
100
AcDbSymbolTableRecord
100
AcDbLayerTableRecord
  2
SA
 70
     0
 62
     7
  6
CONTINUOUS
370
    30
390
F
  0
LAYER
  5
2C
330
2
100
AcDbSymbolTableRecord
100
AcDbLayerTableRecord
  2
MO
 70
     0
 62
     3
  6
CONTINUOUS
370
    20
390
F
  0
LAYER
  5
2D
330
2
100
AcDbSymbolTableRecord
100
AcDbLayerTableRecord
  2
SC
 70
     0
 62
     6
  6
CONTINUOUS
370
    13
390
F
  0
LAYER
  5
2E
330
2
100
AcDbSymbolTableRecord
100
AcDbLayerTableRecord
  2
DEFPOINTS
 70
     0
 62
     7
  6
CONTINUOUS
290
     0
370
    -3
390
F
  0
LAYER
  5
1397
330
2
100
AcDbSymbolTableRecord
100
AcDbLayerTableRecord
  2
sd
 70
     0
 62
     1
  6
CONTINUOUS
370
    20
390
F
  0
ENDTAB
  0
TABLE
  2
STYLE
  5
3
330
0
100
AcDbSymbolTable
 70
     3
  0
STYLE
  5
11
330
3
100
AcDbSymbolTableRecord
100
AcDbTextStyleTableRecord
  2
STANDARD
 70
     0
 40
0.0
 41
1.0
 50
0.0
 71
     0
 42
0.2
  3
TXT
  4

  0
STYLE
  5
22
330
3
100
AcDbSymbolTableRecord
100
AcDbTextStyleTableRecord
  2
0
 70
     0
 40
0.0
 41
1.0
 50
0.0
 71
     0
 42
10.0
  3
SIMPLEX
  4
BIGFONT
  0
STYLE
  5
1C0B
330
3
100
AcDbSymbolTableRecord
100
AcDbTextStyleTableRecord
  2

 70
     1
 40
0.0
 41
1.0
 50
0.0
 71
     0
 42
10.0
  3
ltypeshp.shx
  4

  0
ENDTAB
  0
TABLE
  2
VIEW
  5
6
330
0
100
AcDbSymbolTable
 70
     1
  0
VIEW
  5
25
330
6
100
AcDbSymbolTableRecord
100
AcDbViewTableRecord
  2
HYOU
 70
     0
 40
162.519
 10
329.94
 20
84.5855
 41
158.206
 11
0.0
 21
0.0
 31
1.0
 12
0.0
 22
0.0
 32
0.0
 42
0.0
 43
0.0
 44
0.0
 50
0.0
 71
     0
281
     0
 72
     0
  0
ENDTAB
  0
TABLE
  2
UCS
  5
7
330
0
100
AcDbSymbolTable
 70
     0
  0
ENDTAB
  0
TABLE
  2
APPID
  5
9
330
0
100
AcDbSymbolTable
 70
     2
  0
APPID
  5
12
330
9
100
AcDbSymbolTableRecord
100
AcDbRegAppTableRecord
  2
ACAD
 70
     0
  0
APPID
  5
17B3
330
9
100
AcDbSymbolTableRecord
100
AcDbRegAppTableRecord
  2
ACAD_PSEXT
 70
     0
  0
ENDTAB
  0
TABLE
  2
DIMSTYLE
  5
A
330
0
100
AcDbSymbolTable
 70
     1
100
AcDbDimStyleTable
 71
     1
340
3C3
  0
DIMSTYLE
105
3C3
330
A
100
AcDbSymbolTableRecord
100
AcDbDimStyleTableRecord
  2
Standard
 70
     0
 41
2.0
140
2.0
340
11
  0
ENDTAB
  0
TABLE
  2
BLOCK_RECORD
  5
1
330
0
100
AcDbSymbolTable
 70
     5
  0
BLOCK_RECORD
  5
1E
330
1
100
AcDbSymbolTableRecord
100
AcDbBlockTableRecord
  2
*Model_Space
340
21
  0
BLOCK_RECORD
  5
1A
330
1
100
AcDbSymbolTableRecord
100
AcDbBlockTableRecord
  2
*Paper_Space
340
1D
  0
BLOCK_RECORD
  5
1BF1
330
1
100
AcDbSymbolTableRecord
100
AcDbBlockTableRecord
  2
A$C168224A4
340
0
  0
ENDTAB
  0
ENDSEC
  0
SECTION
  2
BLOCKS
  0
BLOCK
  5
31
330
1E
100
AcDbEntity
  8
0
100
AcDbBlockBegin
  2
*Model_Space
 70
     0
 10
0.0
 20
0.0
 30
0.0
  3
*Model_Space
  1

  0
ENDBLK
  5
32
330
1E
100
AcDbEntity
  8
0
100
AcDbBlockEnd
  0
BLOCK
  5
2F
330
1A
100
AcDbEntity
 67
     1
  8
0
100
AcDbBlockBegin
  2
*Paper_Space
 70
     0
 10
0.0
 20
0.0
 30
0.0
  3
*Paper_Space
  1

  0
ENDBLK
  5
30
330
1A
100
AcDbEntity
 67
     1
  8
0
100
AcDbBlockEnd
  0
BLOCK
  5
1BF7
330
1BF1
100
AcDbEntity
  8
0
100
AcDbBlockBegin
  2
A$C168224A4
 70
     0
 10
0.0
 20
0.0
 30
0.0
  3
A$C168224A4
  1

  0
TEXT
  5
1BF2
330
1BF1
100
AcDbEntity
  8
MO
100
AcDbText
 10
29.06392589340328
 20
15.78399955256054
 30
0.0
 40
3.599999999999999
  1
ヒーターバンド
  7
0
100
AcDbText
  0
TEXT
  5
1BF3
330
1BF1
100
AcDbEntity
  8
MO
100
AcDbText
 10
16.98844636234099
 20
21.7352072125702
 30
0.0
 40
3.599999999999999
  1
ヒーター（C）
  7
0
100
AcDbText
  0
LINE
  5
1BF4
330
1BF1
100
AcDbEntity
  8
SC
100
AcDbLine
 10
14.63431328166325
 20
20.85448773706838
 30
0.0
 11
59.28792531728698
 21
20.85448773706838
 31
0.0
  0
LINE
  5
1BF5
330
1BF1
100
AcDbEntity
  8
SC
100
AcDbLine
 10
0.3999994263709823
 20
0.3999998947063545
 30
0.0
 11
14.63431328166325
 21
20.85448773706838
 31
0.0
  0
CIRCLE
  5
1BF6
330
1BF1
100
AcDbEntity
  8
SC
100
AcDbCircle
 10
0.3999994263709823
 20
0.3999998947063545
 30
0.0
 40
0.4
  0
ENDBLK
  5
1BF8
330
1BF1
100
AcDbEntity
  8
0
100
AcDbBlockEnd
  0
ENDSEC
  0
SECTION
  2
ENTITIES
  0
TEXT
  5
61
330
1E
100
AcDbEntity
  8
MO
100
AcDbText
 10
328.5
 20
53.5
 30
0.0
 40
4.0
  1

  7
0
 72
     1
 11
328.5
 21
53.5
 31
0.0
100
AcDbText
  0
TEXT
  5
62
330
1E
100
AcDbEntity
  8
MO
100
AcDbText
 10
328.5
 20
47.0
 30
0.0
 40
4.0
  1

  7
0
 72
     1
 11
328.5
 21
47.0
 31
0.0
100
AcDbText
  0
TEXT
  5
63
330
1E
100
AcDbEntity
  8
MO
100
AcDbText
 10
328.5
 20
34.0
 30
0.0
 40
4.0
  1

  7
0
 72
     1
 11
328.5
 21
34.0
 31
0.0
100
AcDbText
  0
TEXT
  5
6E
330
1E
100
AcDbEntity
  8
MO
100
AcDbText
 10
328.204
 20
39.802
 30
0.0
 40
4.0
  1

  7
0
 72
     1
 11
328.204
 21
39.802
 31
0.0
100
AcDbText
  0
TEXT
  5
89
330
1E
100
AcDbEntity
  8
MO
100
AcDbText
 10
82.20200000000009
 20
51.07199999999998
 30
0.0
 40
3.0
  1

  7
0
100
AcDbText
  0
TEXT
  5
8B
330
1E
100
AcDbEntity
  8
MO
100
AcDbText
 10
110.859
 20
51.07199999999998
 30
0.0
 40
3.0
  1

  7
0
100
AcDbText
  0
TEXT
  5
8D
330
1E
100
AcDbEntity
  8
MO
100
AcDbText
 10
360.261
 20
19.91099999999999
 30
0.0
 40
7.0
  1

  7
0
 72
     4
 11
360.261
 21
19.91099999999999
 31
0.0
100
AcDbText
  0
TEXT
  5
91
330
1E
100
AcDbEntity
  8
MO
370
    40
100
AcDbText
 10
216.5733260705749
 20
246.8484085017089
 30
0.0
 40
10.8
  1
中央端子型プレートヒーター
  7
0
100
AcDbText
  0
TEXT
  5
AC
330
1E
100
AcDbEntity
  8
MO
100
AcDbText
 10
103.1910000000001
 20
51.07199999999996
 30
0.0
 40
3.0
  1

  7
0
100
AcDbText
  0
TEXT
  5
1399
330
1E
100
AcDbEntity
  8
MO
100
AcDbText
 10
75.70200000000008
 20
51.07199999999998
 30
0.0
 40
3.0
  1

  7
0
100
AcDbText
  0
TEXT
  5
139C
330
1E
100
AcDbEntity
  8
MO
100
AcDbText
 10
110.859
 20
63.07199999999996
 30
0.0
 40
3.0
  1

  7
0
100
AcDbText
  0
TEXT
  5
139F
330
1E
100
AcDbEntity
  8
SC
100
AcDbText
 10
135.033
 20
64.98099999999995
 30
0.0
 40
2.0
  1

  7
0
100
AcDbText
  0
TEXT
  5
13A0
330
1E
100
AcDbEntity
  8
MO
100
AcDbText
 10
110.859
 20
45.07200000000001
 30
0.0
 40
3.0
  1

  7
0
100
AcDbText
  0
TEXT
  5
148E
330
1E
100
AcDbEntity
  8
MO
100
AcDbText
 10
355.9181320877766
 20
10.917
 30
0.0
 40
5.0
  1
株）
  7
0
 72
     1
 11
359.9181320877766
 21
10.917
 31
0.0
100
AcDbText
  0
TEXT
  5
1491
330
1E
100
AcDbEntity
  8
SC
100
AcDbText
 10
103.7564
 20
117.6597333333333
 30
0.0
 40
0.25
  1

100
AcDbText
  0
TEXT
  5
1492
330
1E
100
AcDbEntity
  8
MO
100
AcDbText
 10
367.191
 20
10.917
 30
0.0
 40
6.0
  1
愛西電熱
  7
0
 72
     1
 11
380.7910000000001
 21
10.917
 31
0.0
100
AcDbText
  0
MTEXT
  5
1758
330
1E
100
AcDbEntity
  8
SC
100
AcDbMText
 10
317.637
 20
21.871
 30
0.0
 40
2.5
 41
0.0
 71
     1
 72
     5
  1

  7
0
 73
     1
 44
1.0
1001
ACAD
1000
MTEXTBEGIN
1070
    73
1070
     1
1070
    44
1040
1.0
1070
    74
1070
     0
1000
MTEXTEND
  0
MTEXT
  5
178F
330
1E
100
AcDbEntity
  8
SC
100
AcDbMText
 10
220.1774508739589
 20
61.30926792682226
 30
0.0
 40
5.0
 41
0.0
 71
     1
 72
     5
  1
加工穴、その他変更部がありましたら図面に書き込んで御利用下さい
  7
0
 73
     1
 44
1.0
1001
ACAD
1000
MTEXTBEGIN
1070
    73
1070
     1
1070
    44
1040
1.0
1070
    74
1070
     0
1000
MTEXTEND
  0
LINE
  5
17DC
330
1E
100
AcDbEntity
  8
0
100
AcDbLine
 10
14.99999999999995
 20
30.70499999999999
 30
0.0
 11
14.99999999999995
 21
50.70499999999999
 31
0.0
  0
LINE
  5
17DE
330
1E
100
AcDbEntity
  8
0
100
AcDbLine
 10
24.99999999999994
 20
50.70499999999999
 30
0.0
 11
24.99999999999994
 21
30.705
 31
0.0
  0
LINE
  5
1806
330
1E
100
AcDbEntity
  8
0
100
AcDbLine
 10
14.99999999999995
 20
50.70499999999999
 30
0.0
 11
49.99999999999994
 21
50.70499999999999
 31
0.0
  0
LINE
  5
1807
330
1E
100
AcDbEntity
  8
0
100
AcDbLine
 10
14.99999999999995
 20
40.70499999999999
 30
0.0
 11
49.99999999999994
 21
40.70499999999999
 31
0.0
  0
LINE
  5
1808
330
1E
100
AcDbEntity
  8
0
100
AcDbLine
 10
14.99999999999995
 20
30.70499999999999
 30
0.0
 11
49.99999999999994
 21
30.70499999999999
 31
0.0
  0
LINE
  5
180A
330
1E
100
AcDbEntity
  8
0
100
AcDbLine
 10
159.9999999999999
 20
50.70499999999999
 30
0.0
 11
281.0
 21
50.70499999999999
 31
0.0
  0
TEXT
  5
1814
330
1E
100
AcDbEntity
  8
MO
100
AcDbText
 10
19.18000058282744
 20
43.87999982484505
 30
0.0
 40
3.499999999999999
  1
A
  7
0
100
AcDbText
  0
TEXT
  5
181A
330
1E
100
AcDbEntity
  8
MO
100
AcDbText
 10
91.28012879570206
 20
43.7553613470516
 30
0.0
 40
3.499999999999999
  1
B
  7
0
100
AcDbText
  0
TEXT
  5
1822
330
1E
100
AcDbEntity
  8
MO
100
AcDbText
 10
32.58085048309867
 20
43.07893657328403
 30
0.0
 40
4.375
  1
全長
  7
0
 72
     1
 11
37.24751714976533
 21
43.07893657328403
 31
0.0
100
AcDbText
  0
TEXT
  5
1829
330
1E
100
AcDbEntity
  8
MO
100
AcDbText
 10
107.5739879080579
 20
43.61824969380626
 30
0.0
 40
4.375
  1
巾
  7
0
 72
     1
 11
109.6156545747246
 21
43.61824969380626
 31
0.0
100
AcDbText
  0
TEXT
  5
1844
330
1E
100
AcDbEntity
  8
MO
100
AcDbText
 10
18.85312879570205
 20
33.67336134705161
 30
0.0
 40
3.499999999999999
  1
C
  7
0
100
AcDbText
  0
TEXT
  5
1845
330
1E
100
AcDbEntity
  8
MO
100
AcDbText
 10
32.40350193661301
 20
33.50686474409736
 30
0.0
 40
4.375
  1
厚み
  7
0
 72
     1
 11
36.92433526994634
 21
33.50686474409736
 31
0.0
100
AcDbText
  0
LINE
  5
1847
330
1E
100
AcDbEntity
  8
0
100
AcDbLine
 10
49.99999999999994
 20
50.70499999999999
 30
0.0
 11
49.99999999999994
 21
30.70499999999999
 31
0.0
  0
TEXT
  5
1856
330
1E
100
AcDbEntity
  8
MO
100
AcDbText
 10
226.088412769654
 20
33.66682550160349
 30
0.0
 40
4.375
  1
数量
  7
0
 72
     1
 11
230.7550794363206
 21
33.66682550160349
 31
0.0
100
AcDbText
  0
LINE
  5
1870
330
1E
100
AcDbEntity
  8
0
100
AcDbLine
 10
14.99999999999994
 20
30.705
 30
0.0
 11
159.9999999999999
 21
30.70499999999999
 31
0.0
  0
LINE
  5
1871
330
1E
100
AcDbEntity
  8
0
100
AcDbLine
 10
87.49999999999992
 20
50.70499999999999
 30
0.0
 11
87.49999999999992
 21
30.70499999999999
 31
0.0
  0
LINE
  5
1873
330
1E
100
AcDbEntity
  8
0
100
AcDbLine
 10
49.99999999999994
 20
50.70499999999999
 30
0.0
 11
159.9999999999999
 21
50.70499999999999
 31
0.0
  0
LINE
  5
1874
330
1E
100
AcDbEntity
  8
0
100
AcDbLine
 10
49.99999999999994
 20
40.70499999999999
 30
0.0
 11
87.49999999999992
 21
40.70499999999999
 31
0.0
  0
LINE
  5
1875
330
1E
100
AcDbEntity
  8
0
100
AcDbLine
 10
49.99999999999994
 20
30.70499999999999
 30
0.0
 11
159.9999999999999
 21
30.70499999999999
 31
0.0
  0
LINE
  5
1884
330
1E
100
AcDbEntity
  8
0
100
AcDbLine
 10
122.4999999999999
 20
40.705
 30
0.0
 11
159.9999999999999
 21
40.705
 31
0.0
  0
LINE
  5
1888
330
1E
100
AcDbEntity
  8
0
100
AcDbLine
 10
14.99999999999994
 20
30.705
 30
0.0
 11
159.9999999999999
 21
30.70499999999999
 31
0.0
  0
LINE
  5
1889
330
1E
100
AcDbEntity
  8
0
100
AcDbLine
 10
17.99999999999994
 20
20.705
 30
0.0
 11
283.2259999999999
 21
20.70499999999999
 31
0.0
  0
LINE
  5
188A
330
1E
100
AcDbEntity
  8
0
100
AcDbLine
 10
17.99999999999994
 20
10.705
 30
0.0
 11
283.2259999999999
 21
10.70499999999998
 31
0.0
  0
TEXT
  5
1892
330
1E
100
AcDbEntity
  8
MO
100
AcDbText
 10
18.0825030365616
 20
28.37468907764135
 30
0.0
 40
2.799999999999999
  1

  7
0
100
AcDbText
  0
TEXT
  5
1893
330
1E
100
AcDbEntity
  8
MO
100
AcDbText
 10
18.31122710757998
 20
21.78303665633006
 30
0.0
 40
3.5
  1
その他詳細：
  7
0
 72
     1
 11
29.86122710757998
 21
21.78303665633006
 31
0.0
100
AcDbText
  0
LINE
  5
18A2
330
1E
100
AcDbEntity
  8
0
100
AcDbLine
 10
87.49999999999992
 20
40.70499999999999
 30
0.0
 11
159.9999999999999
 21
40.70499999999999
 31
0.0
  0
TEXT
  5
18A3
330
1E
100
AcDbEntity
  8
MO
100
AcDbText
 10
226.322471877816
 20
43.55161148403567
 30
0.0
 40
4.375
  1
容量
  7
0
 72
     1
 11
230.9891385444827
 21
43.55161148403567
 31
0.0
100
AcDbText
  0
TEXT
  5
18A5
330
1E
100
AcDbEntity
  8
MO
100
AcDbText
 10
166.1966333931626
 20
43.47752605931685
 30
0.0
 40
4.375
  1
電圧
  7
0
 72
     1
 11
170.8633000598292
 21
43.47752605931685
 31
0.0
100
AcDbText
  0
LINE
  5
18A9
330
1E
100
AcDbEntity
  8
0
100
AcDbLine
 10
159.9999999999999
 20
50.70499999999999
 30
0.0
 11
159.9999999999999
 21
30.70499999999999
 31
0.0
  0
LINE
  5
18AA
330
1E
100
AcDbEntity
  8
0
100
AcDbLine
 10
97.49999999999994
 20
50.70499999999999
 30
0.0
 11
97.49999999999994
 21
30.70499999999999
 31
0.0
  0
LINE
  5
18AB
330
1E
100
AcDbEntity
  8
0
100
AcDbLine
 10
122.4999999999999
 20
50.70499999999999
 30
0.0
 11
122.4999999999999
 21
30.70499999999999
 31
0.0
  0
TEXT
  5
18B4
330
1E
100
AcDbEntity
  8
MO
100
AcDbText
 10
334.7498393399925
 20
3.380574230302642
 30
0.0
 40
3.5
  1
AISEI  DENNETSU CO., LTD
  7
0
100
AcDbText
  0
TEXT
  5
18BD
330
1E
100
AcDbEntity
  8
MO
100
AcDbText
 10
398.0943211714158
 20
11.06163477656134
 30
0.0
 40
5.0
  1
行
  7
0
 72
     1
 11
400.4276545047491
 21
11.06163477656134
 31
0.0
100
AcDbText
  0
TEXT
  5
18CC
330
1E
100
AcDbEntity
  8
MO
100
AcDbText
 10
150.7363375097419
 20
42.75375974362895
 30
0.0
 40
3.0625
  1
mm
  7
0
 72
     1
 11
154.5280041764086
 21
42.75375974362895
 31
0.0
100
AcDbText
  0
TEXT
  5
18D2
330
1E
100
AcDbEntity
  8
MO
100
AcDbText
 10
212.9983333333334
 20
42.769
 30
0.0
 40
4.375
  1
V
  7
0
 72
     1
 11
214.665
 21
42.769
 31
0.0
100
AcDbText
  0
TEXT
  5
18D8
330
1E
100
AcDbEntity
  8
MO
100
AcDbText
 10
273.9431655087571
 20
43.26163213625631
 30
0.0
 40
4.375
  1
W
  7
0
 72
     1
 11
276.0264988420904
 21
43.26163213625631
 31
0.0
100
AcDbText
  0
TEXT
  5
18DE
330
1E
100
AcDbEntity
  8
MO
100
AcDbText
 10
274.4442622448694
 20
33.87254434300947
 30
0.0
 40
4.375
  1
枚
  7
0
 72
     1
 11
276.485928911536
 21
33.87254434300947
 31
0.0
100
AcDbText
  0
TEXT
  5
18EB
330
1E
100
AcDbEntity
  8
MO
100
AcDbText
 10
17.62914196000259
 20
55.01909017515878
 30
0.0
 40
4.550000000000001
  1
※　下記空欄に記入し、FAXしてください
  7
0
100
AcDbText
  0
LINE
  5
18ED
330
1E
100
AcDbEntity
  8
0
100
AcDbLine
 10
3.193615971125439
 20
267.713
 30
0.0
 11
128.2526159711254
 21
267.713
 31
0.0
  0
LINE
  5
18EE
330
1E
100
AcDbEntity
  8
0
100
AcDbLine
 10
3.193615971125439
 20
255.713
 30
0.0
 11
128.2526159711254
 21
255.7129999999999
 31
0.0
  0
LINE
  5
18EF
330
1E
100
AcDbEntity
  8
0
100
AcDbLine
 10
3.193615971125424
 20
243.713
 30
0.0
 11
128.2526159711254
 21
243.7129999999999
 31
0.0
  0
LINE
  5
18F0
330
1E
100
AcDbEntity
  8
0
100
AcDbLine
 10
3.193615971125424
 20
231.713
 30
0.0
 11
128.2526159711254
 21
231.7129999999999
 31
0.0
  0
TEXT
  5
18F7
330
1E
100
AcDbEntity
  8
MO
100
AcDbText
 10
5.047000000000002
 20
269.7195108252091
 30
0.0
 40
4.375
  1
貴社名：
  7
0
 72
     1
 11
14.08866666666667
 21
269.7195108252091
 31
0.0
100
AcDbText
  0
TEXT
  5
18FF
330
1E
100
AcDbEntity
  8
MO
100
AcDbText
 10
4.762445293775542
 20
259.6404968976157
 30
0.0
 40
4.375
  1
部署・担当者名：
  7
0
 72
     1
 11
24.30411196044222
 21
259.6404968976157
 31
0.0
100
AcDbText
  0
TEXT
  5
190B
330
1E
100
AcDbEntity
  8
MO
100
AcDbText
 10
4.244409610399635
 20
235.1743512486338
 30
0.0
 40
4.375
  1
御連絡先 FAX：
  7
0
 72
     1
 11
23.4735762770663
 21
235.1743512486338
 31
0.0
100
AcDbText
  0
TEXT
  5
1918
330
1E
100
AcDbEntity
  8
MO
100
AcDbText
 10
4.271947869785471
 20
247.7453335828736
 30
0.0
 40
4.375
  1
御連絡先 TEL：
  7
0
 72
     1
 11
22.87611453645213
 21
247.7453335828736
 31
0.0
100
AcDbText
  0
LINE
  5
1923
330
1E
100
AcDbEntity
  8
0
370
    40
100
AcDbLine
 10
315.0881625155811
 20
37.35735115744029
 30
0.0
 11
393.0881625155811
 21
37.35735115744029
 31
0.0
  0
LINE
  5
1924
330
1E
100
AcDbEntity
  8
0
370
    40
100
AcDbLine
 10
315.0881625155811
 20
34.7573511574403
 30
0.0
 11
399.5881625155811
 21
34.7573511574403
 31
0.0
  0
LINE
  5
1925
330
1E
100
AcDbEntity
  8
0
370
    40
100
AcDbLine
 10
393.0881625155811
 20
37.35735115744029
 30
0.0
 11
393.0881625155811
 21
39.95735115744029
 31
0.0
  0
LINE
  5
1926
330
1E
100
AcDbEntity
  8
0
370
    40
100
AcDbLine
 10
393.0881625155811
 20
39.95735115744029
 30
0.0
 11
399.5881625155811
 21
34.7573511574403
 31
0.0
  0
LINE
  5
1927
330
1E
100
AcDbEntity
  8
0
370
    40
100
AcDbLine
 10
315.0881625155811
 20
37.35735115744029
 30
0.0
 11
315.0881625155811
 21
34.7573511574403
 31
0.0
  0
TEXT
  5
192E
330
1E
100
AcDbEntity
  8
MO
370
    40
100
AcDbText
 10
324.6798300677355
 20
38.84484239326316
 30
0.0
 40
7.800000000000001
  1
FAX送信方向
  7
0
 72
     1
 11
353.2426872105926
 21
38.84484239326316
 31
0.0
100
AcDbText
  0
TEXT
  5
1943
330
1E
100
AcDbEntity
  8
0
370
    53
100
AcDbText
 10
86.07465571428523
 20
284.1842971226886
 30
0.0
 40
10.0
  1
愛西電熱　見積依頼書・注文書　フォーム
  7
0
100
AcDbText
  0
TEXT
  5
195E
330
1E
100
AcDbEntity
  8
MO
370
    40
100
AcDbText
 10
313.1463329590498
 20
24.83965109775832
 30
0.0
 40
7.800000000000001
  1
0568-25-2241
  7
0
 72
     1
 11
357.1606186733355
 21
24.83965109775832
 31
0.0
100
AcDbText
  0
LINE
  5
19C2
330
1E
100
AcDbEntity
  8
SC
370
    40
100
AcDbLine
 10
214.363
 20
245.664
 30
0.0
 11
386.187
 21
245.664
 31
0.0
  0
LINE
  5
19F9
330
1E
100
AcDbEntity
  8
0
100
AcDbLine
 10
160.9999999999999
 20
50.70499999999999
 30
0.0
 11
160.9999999999999
 21
30.70499999999999
 31
0.0
  0
LINE
  5
1A00
330
1E
100
AcDbEntity
  8
0
100
AcDbLine
 10
159.9999999999999
 20
40.705
 30
0.0
 11
280.9999999999999
 21
40.70499999999983
 31
0.0
  0
LINE
  5
1A06
330
1E
100
AcDbEntity
  8
0
100
AcDbLine
 10
159.9999999999999
 20
30.70499999999999
 30
0.0
 11
280.9999999999999
 21
30.70499999999997
 31
0.0
  0
LINE
  5
1A08
330
1E
100
AcDbEntity
  8
0
100
AcDbLine
 10
180.9999999999999
 20
50.70499999999999
 30
0.0
 11
180.9999999999999
 21
30.70499999999999
 31
0.0
  0
LINE
  5
1A09
330
1E
100
AcDbEntity
  8
0
100
AcDbLine
 10
220.9999999999999
 20
50.70499999999999
 30
0.0
 11
220.9999999999999
 21
30.70499999999998
 31
0.0
  0
LINE
  5
1A12
330
1E
100
AcDbEntity
  8
0
100
AcDbLine
 10
281.0
 20
50.70499999999999
 30
0.0
 11
280.9999999999999
 21
30.70499999999997
 31
0.0
  0
LINE
  5
1A13
330
1E
100
AcDbEntity
  8
0
100
AcDbLine
 10
241.0
 20
50.70499999999999
 30
0.0
 11
241.0
 21
30.70499999999999
 31
0.0
  0
LINE
  5
1A14
330
1E
100
AcDbEntity
  8
0
100
AcDbLine
 10
220.9999999999999
 20
50.70499999999999
 30
0.0
 11
220.9999999999999
 21
30.70499999999999
 31
0.0
  0
TEXT
  5
1D1C
330
1E
100
AcDbEntity
  8
MO
100
AcDbText
 10
78.23633750974194
 20
42.75375974362895
 30
0.0
 40
3.0625
  1
mm
  7
0
 72
     1
 11
82.02800417640862
 21
42.75375974362895
 31
0.0
100
AcDbText
  0
TEXT
  5
1D2A
330
1E
100
AcDbEntity
  8
MO
100
AcDbText
 10
98.69339943265652
 20
176.5927140682773
 30
0.0
 40
6.0
  1
B
 50
90.0
  7
0
100
AcDbText
  0
TEXT
  5
1D43
330
1E
100
AcDbEntity
  8
MO
100
AcDbText
 10
166.0717162065842
 20
33.50686474409734
 30
0.0
 40
4.375
  1
材質
  7
0
 72
     1
 11
170.7383828732508
 21
33.50686474409734
 31
0.0
100
AcDbText
  0
TEXT
  5
1D44
330
1E
100
AcDbEntity
  8
MO
100
AcDbText
 10
186.6550856006881
 20
33.91959994624482
 30
0.0
 40
3.5
  1
SUS・ボンデ鋼鈑
  7
0
 72
     1
 11
201.8550856006882
 21
33.91959994624482
 31
0.0
100
AcDbText
  0
TEXT
  5
1E72
330
1E
100
AcDbEntity
  8
MO
100
AcDbText
 10
210.6369825024605
 20
218.0640420053422
 30
0.0
 40
6.0
  1
A
  7
0
100
AcDbText
  0
TEXT
  5
1E7B
330
1E
100
AcDbEntity
  8
MO
100
AcDbText
 10
98.70513213411619
 20
114.7051851329211
 30
0.0
 40
6.0
  1
C
 50
90.0
  7
0
100
AcDbText
  0
TEXT
  5
1E9F
330
1E
100
AcDbEntity
  8
MO
100
AcDbText
 10
78.23633750974194
 20
32.75375974362896
 30
0.0
 40
3.0625
  1
mm
  7
0
 72
     1
 11
82.02800417640862
 21
32.75375974362896
 31
0.0
100
AcDbText
  0
TEXT
  5
1EA9
330
1E
100
AcDbEntity
  8
MO
100
AcDbText
 10
250.6477150210637
 20
222.0598994999567
 30
0.0
 40
3.599999999999999
  1
（D）
  7
0
100
AcDbText
  0
TEXT
  5
1EAA
330
1E
100
AcDbEntity
  8
MO
100
AcDbText
 10
231.374269940013
 20
226.9744996608317
 30
0.0
 40
3.599999999999999
  1
ターミナル端子
  7
0
100
AcDbText
  0
LINE
  5
1EAB
330
1E
100
AcDbEntity
  8
SC
100
AcDbLine
 10
228.5073434729806
 20
226.5494993726517
 30
0.0
 11
261.8603284228126
 21
226.5494993726517
 31
0.0
  0
LWPOLYLINE
  5
1EAC
330
1E
100
AcDbEntity
  8
SC
100
AcDbPolyline
 90
        2
 70
     0
 43
0.0
 10
214.4707082947858
 20
193.3483712585786
 10
228.5073434729806
 20
226.5494993726517
1001
ACAD
1000
DSTYLE
1002
{
1070
   147
1040
0.09
1070
    40
1040
10.0
1070
    41
1040
0.25
1070
    42
1040
0.1
1070
    43
1040
0.6
1070
    44
1040
0.2
1070
    73
1070
     0
1070
    74
1070
     0
1070
    77
1070
     0
1070
   140
1040
0.3
1070
   172
1070
     1
1070
   179
1070
     1
1070
   271
1070
     0
1070
   272
1070
     0
1070
   279
1070
     2
1070
   340
1005
22
1002
}
  0
SOLID
  5
1EAD
330
1E
100
AcDbEntity
  8
SC
100
AcDbTrace
 10
214.8543501931801
 20
193.1857981829864
 30
0.0
 11
213.4952698412326
 21
191.0465198682127
 31
0.0
 12
214.0870663963915
 22
193.5109443341708
 32
0.0
 13
214.0870663963915
 23
193.5109443341708
 33
0.0
1001
ACAD
1000
DSTYLE
1002
{
1070
   147
1040
0.09
1070
    40
1040
10.0
1070
    41
1040
0.25
1070
    42
1040
0.1
1070
    43
1040
0.6
1070
    44
1040
0.2
1070
    73
1070
     0
1070
    74
1070
     0
1070
    77
1070
     0
1070
   140
1040
0.3
1070
   172
1070
     1
1070
   179
1070
     1
1070
   271
1070
     0
1070
   272
1070
     0
1070
   279
1070
     2
1070
   340
1005
22
1002
}
  0
TEXT
  5
1EB5
330
1E
100
AcDbEntity
  8
MO
100
AcDbText
 10
91.35312879570202
 20
33.6733613470516
 30
0.0
 40
3.499999999999999
  1
D
  7
0
100
AcDbText
  0
TEXT
  5
1EB6
330
1E
100
AcDbEntity
  8
MO
100
AcDbText
 10
104.7576686032796
 20
33.50686474409736
 30
0.0
 40
4.375
  1
端子
  7
0
 72
     1
 11
109.4243352699463
 21
33.50686474409736
 31
0.0
100
AcDbText
  0
TEXT
  5
1EB7
330
1E
100
AcDbEntity
  8
MO
100
AcDbText
 10
128.35646624308
 20
33.91959994624483
 30
0.0
 40
3.5
  1
M4　・　M5
  7
0
 72
     1
 11
141.4897995764133
 21
33.91959994624483
 31
0.0
100
AcDbText
  0
TEXT
  5
1EC0
330
1E
100
AcDbEntity
  8
MO
100
AcDbText
 10
167.82344693597
 20
127.5942073178638
 30
0.0
 40
3.599999999999999
  1
ヒーター
  7
0
100
AcDbText
  0
LINE
  5
1EC1
330
1E
100
AcDbEntity
  8
SC
100
AcDbLine
 10
165.4693138552923
 20
126.713487842362
 30
0.0
 11
186.2910003099157
 21
126.713487842362
 31
0.0
  0
LINE
  5
1EC2
330
1E
100
AcDbEntity
  8
SC
100
AcDbLine
 10
151.235
 20
106.259
 30
0.0
 11
165.4693138552923
 21
126.713487842362
 31
0.0
  0
CIRCLE
  5
1EC3
330
1E
100
AcDbEntity
  8
SC
100
AcDbCircle
 10
151.235
 20
106.259
 30
0.0
 40
0.4
  0
SOLID
  5
1F52
330
1E
100
AcDbEntity
  8
SC
100
AcDbTrace
 10
310.122
 20
216.6206665703126
 30
0.0
 11
310.122
 21
215.7873332369793
 31
0.0
 12
312.622
 22
216.2039999036459
 32
0.0
 13
312.622
 23
216.2039999036459
 33
0.0
  0
SOLID
  5
1F53
330
1E
100
AcDbEntity
  8
SC
100
AcDbTrace
 10
115.122
 20
216.6206665703126
 30
0.0
 11
115.122
 21
215.7873332369793
 31
0.0
 12
112.622
 22
216.2039999036459
 32
0.0
 13
112.622
 23
216.2039999036459
 33
0.0
  0
LINE
  5
1F54
330
1E
100
AcDbEntity
  8
SC
100
AcDbLine
 10
115.122
 20
216.2039999036459
 30
0.0
 11
310.122
 21
216.2039999036459
 31
0.0
  0
LINE
  5
1F55
330
1E
100
AcDbEntity
  8
SC
100
AcDbLine
 10
312.622
 20
204.7039999036459
 30
0.0
 11
312.622
 21
218.2039999036459
 31
0.0
  0
LINE
  5
1F56
330
1E
100
AcDbEntity
  8
SC
100
AcDbLine
 10
112.622
 20
204.703999903646
 30
0.0
 11
112.622
 21
218.2039999036459
 31
0.0
  0
SOLID
  5
1F57
330
1E
100
AcDbEntity
  8
SC
100
AcDbTrace
 10
99.70533333333339
 20
156.203999903646
 30
0.0
 11
100.5386666666667
 21
156.203999903646
 31
0.0
 12
100.122
 22
153.703999903646
 32
0.0
 13
100.122
 23
153.703999903646
 33
0.0
  0
SOLID
  5
1F58
330
1E
100
AcDbEntity
  8
SC
100
AcDbTrace
 10
99.70533333333339
 20
201.203999903646
 30
0.0
 11
100.5386666666667
 21
201.203999903646
 31
0.0
 12
100.122
 22
203.703999903646
 32
0.0
 13
100.122
 23
203.703999903646
 33
0.0
  0
LINE
  5
1F59
330
1E
100
AcDbEntity
  8
SC
100
AcDbLine
 10
100.122
 20
201.203999903646
 30
0.0
 11
100.122
 21
156.203999903646
 31
0.0
  0
LINE
  5
1F5A
330
1E
100
AcDbEntity
  8
SC
100
AcDbLine
 10
111.622
 20
153.703999903646
 30
0.0
 11
98.12200000000002
 21
153.703999903646
 31
0.0
  0
LINE
  5
1F5B
330
1E
100
AcDbEntity
  8
SC
100
AcDbLine
 10
111.622
 20
203.703999903646
 30
0.0
 11
98.12200000000007
 21
203.703999903646
 31
0.0
  0
SOLID
  5
1F5C
330
1E
100
AcDbEntity
  8
SC
100
AcDbTrace
 10
99.70533333333333
 20
101.203999903646
 30
0.0
 11
100.5386666666667
 21
101.203999903646
 31
0.0
 12
100.122
 22
103.703999903646
 32
0.0
 13
100.122
 23
103.703999903646
 33
0.0
  0
SOLID
  5
1F5D
330
1E
100
AcDbEntity
  8
SC
100
AcDbTrace
 10
99.70533333333333
 20
110.703999903646
 30
0.0
 11
100.5386666666667
 21
110.703999903646
 31
0.0
 12
100.122
 22
108.203999903646
 32
0.0
 13
100.122
 23
108.203999903646
 33
0.0
  0
LINE
  5
1F5E
330
1E
100
AcDbEntity
  8
SC
100
AcDbLine
 10
100.122
 20
108.203999903646
 30
0.0
 11
100.122
 21
103.703999903646
 31
0.0
  0
LINE
  5
1F5F
330
1E
100
AcDbEntity
  8
SC
100
AcDbLine
 10
100.122
 20
101.203999903646
 30
0.0
 11
100.122
 21
98.70399990364603
 31
0.0
  0
LINE
  5
1F60
330
1E
100
AcDbEntity
  8
SC
100
AcDbLine
 10
100.122
 20
110.703999903646
 30
0.0
 11
100.122
 21
119.904999903646
 31
0.0
  0
LINE
  5
1F61
330
1E
100
AcDbEntity
  8
SC
100
AcDbLine
 10
111.622
 20
103.703999903646
 30
0.0
 11
98.12200000000002
 21
103.703999903646
 31
0.0
  0
LINE
  5
1F62
330
1E
100
AcDbEntity
  8
SC
100
AcDbLine
 10
111.622
 20
108.203999903646
 30
0.0
 11
98.12200000000002
 21
108.203999903646
 31
0.0
  0
LINE
  5
1F69
330
1E
100
AcDbEntity
  8
SA
100
AcDbLine
 10
312.622
 20
108.2039999036459
 30
0.0
 11
312.622
 21
103.7039999036459
 31
0.0
  0
LINE
  5
1F6A
330
1E
100
AcDbEntity
  8
SA
100
AcDbLine
 10
112.622
 20
108.203999903646
 30
0.0
 11
112.622
 21
103.703999903646
 31
0.0
  0
LINE
  5
1F6B
330
1E
100
AcDbEntity
  8
SA
100
AcDbLine
 10
112.622
 20
108.203999903646
 30
0.0
 11
312.622
 21
108.2039999036459
 31
0.0
  0
LINE
  5
1F6C
330
1E
100
AcDbEntity
  8
SA
100
AcDbLine
 10
112.622
 20
103.703999903646
 30
0.0
 11
312.622
 21
103.7039999036459
 31
0.0
  0
LINE
  5
1F6D
330
1E
100
AcDbEntity
  8
HO
100
AcDbLine
 10
200.622
 20
168.703999903646
 30
0.0
 11
224.622
 21
168.703999903646
 31
0.0
  0
LINE
  5
1F6E
330
1E
100
AcDbEntity
  8
SA
100
AcDbLine
 10
212.622
 20
164.103999903646
 30
0.0
 11
216.6057168574084
 21
166.4039999036459
 31
0.0
  0
LINE
  5
1F6F
330
1E
100
AcDbEntity
  8
SA
100
AcDbLine
 10
212.622
 20
173.303999903646
 30
0.0
 11
216.6057168574084
 21
171.003999903646
 31
0.0
  0
CIRCLE
  5
1F70
330
1E
100
AcDbEntity
  8
SA
100
AcDbCircle
 10
212.622
 20
168.703999903646
 30
0.0
 40
2.5
  0
CIRCLE
  5
1F71
330
1E
100
AcDbEntity
  8
SC
100
AcDbCircle
 10
212.622
 20
168.703999903646
 30
0.0
 40
1.9
  0
LINE
  5
1F72
330
1E
100
AcDbEntity
  8
SA
100
AcDbLine
 10
216.6057168574084
 20
166.4039999036459
 30
0.0
 11
216.6057168574084
 21
171.003999903646
 31
0.0
  0
LINE
  5
1F73
330
1E
100
AcDbEntity
  8
SA
100
AcDbLine
 10
208.6382831425916
 20
166.4039999036459
 30
0.0
 11
208.6382831425916
 21
171.003999903646
 31
0.0
  0
LINE
  5
1F74
330
1E
100
AcDbEntity
  8
SA
100
AcDbLine
 10
212.6219999999999
 20
164.103999903646
 30
0.0
 11
208.6382831425916
 21
166.4039999036459
 31
0.0
  0
CIRCLE
  5
1F75
330
1E
100
AcDbEntity
  8
SC
100
AcDbCircle
 10
212.622
 20
168.703999903646
 30
0.0
 40
3.983716857408481
  0
LINE
  5
1F76
330
1E
100
AcDbEntity
  8
SA
100
AcDbLine
 10
212.6219999999999
 20
173.303999903646
 30
0.0
 11
208.6382831425916
 21
171.003999903646
 31
0.0
  0
LINE
  5
1F77
330
1E
100
AcDbEntity
  8
SA
100
AcDbLine
 10
112.622
 20
153.703999903646
 30
0.0
 11
116.622
 21
157.703999903646
 31
0.0
  0
CIRCLE
  5
1F78
330
1E
100
AcDbEntity
  8
SB
100
AcDbCircle
 10
212.622
 20
168.703999903646
 30
0.0
 40
5.5
  0
CIRCLE
  5
1F79
330
1E
100
AcDbEntity
  8
SA
100
AcDbCircle
 10
212.622
 20
168.703999903646
 30
0.0
 40
7.0
  0
LINE
  5
1F7A
330
1E
100
AcDbEntity
  8
SA
100
AcDbLine
 10
308.622
 20
157.703999903646
 30
0.0
 11
312.622
 21
153.703999903646
 31
0.0
  0
LINE
  5
1F7B
330
1E
100
AcDbEntity
  8
SA
100
AcDbLine
 10
312.622
 20
203.703999903646
 30
0.0
 11
308.622
 21
199.7039999036459
 31
0.0
  0
LINE
  5
1F7C
330
1E
100
AcDbEntity
  8
SA
100
AcDbLine
 10
116.622
 20
157.703999903646
 30
0.0
 11
112.622
 21
153.703999903646
 31
0.0
  0
LINE
  5
1F7D
330
1E
100
AcDbEntity
  8
SA
100
AcDbLine
 10
112.622
 20
203.703999903646
 30
0.0
 11
116.622
 21
199.7039999036459
 31
0.0
  0
LINE
  5
1F7E
330
1E
100
AcDbEntity
  8
SA
100
AcDbLine
 10
308.6220000000001
 20
199.7039999036461
 30
0.0
 11
308.622
 21
157.703999903646
 31
0.0
  0
LINE
  5
1F7F
330
1E
100
AcDbEntity
  8
SA
100
AcDbLine
 10
116.622
 20
157.703999903646
 30
0.0
 11
308.6220000000001
 21
157.703999903646
 31
0.0
  0
LINE
  5
1F80
330
1E
100
AcDbEntity
  8
SA
100
AcDbLine
 10
116.622
 20
199.703999903646
 30
0.0
 11
116.622
 21
157.703999903646
 31
0.0
  0
LINE
  5
1F81
330
1E
100
AcDbEntity
  8
SA
100
AcDbLine
 10
116.622
 20
199.7039999036459
 30
0.0
 11
308.622
 21
199.7039999036459
 31
0.0
  0
LINE
  5
1F82
330
1E
100
AcDbEntity
  8
HO
100
AcDbLine
 10
200.622
 20
188.703999903646
 30
0.0
 11
224.622
 21
188.703999903646
 31
0.0
  0
LINE
  5
1F83
330
1E
100
AcDbEntity
  8
SA
100
AcDbLine
 10
312.622
 20
203.703999903646
 30
0.0
 11
312.622
 21
153.703999903646
 31
0.0
  0
LINE
  5
1F84
330
1E
100
AcDbEntity
  8
SA
100
AcDbLine
 10
112.622
 20
203.703999903646
 30
0.0
 11
112.622
 21
153.703999903646
 31
0.0
  0
LINE
  5
1F85
330
1E
100
AcDbEntity
  8
SA
100
AcDbLine
 10
112.622
 20
153.703999903646
 30
0.0
 11
312.622
 21
153.703999903646
 31
0.0
  0
LINE
  5
1F86
330
1E
100
AcDbEntity
  8
SA
100
AcDbLine
 10
112.622
 20
203.703999903646
 30
0.0
 11
312.622
 21
203.7039999036459
 31
0.0
  0
CIRCLE
  5
1F89
330
1E
100
AcDbEntity
  8
SB
100
AcDbCircle
 10
212.622
 20
188.703999903646
 30
0.0
 40
5.5
  0
LINE
  5
1F8A
330
1E
100
AcDbEntity
  8
HO
100
AcDbLine
 10
212.622
 20
211.203999903646
 30
0.0
 11
212.622
 21
146.203999903646
 31
0.0
  0
CIRCLE
  5
1F8B
330
1E
100
AcDbEntity
  8
SA
100
AcDbCircle
 10
212.622
 20
188.703999903646
 30
0.0
 40
7.0
  0
CIRCLE
  5
1F8C
330
1E
100
AcDbEntity
  8
SC
100
AcDbCircle
 10
212.622
 20
188.703999903646
 30
0.0
 40
1.9
  0
CIRCLE
  5
1F8D
330
1E
100
AcDbEntity
  8
SC
100
AcDbCircle
 10
212.622
 20
188.703999903646
 30
0.0
 40
3.983716857408481
  0
LINE
  5
1F8E
330
1E
100
AcDbEntity
  8
SA
100
AcDbLine
 10
212.6219999999999
 20
184.1039999036459
 30
0.0
 11
208.6382831425916
 21
186.4039999036459
 31
0.0
  0
LINE
  5
1F8F
330
1E
100
AcDbEntity
  8
SA
100
AcDbLine
 10
208.6382831425916
 20
191.003999903646
 30
0.0
 11
208.6382831425916
 21
186.4039999036459
 31
0.0
  0
LINE
  5
1F90
330
1E
100
AcDbEntity
  8
SA
100
AcDbLine
 10
212.6219999999999
 20
193.3039999036459
 30
0.0
 11
208.6382831425916
 21
191.003999903646
 31
0.0
  0
LINE
  5
1F91
330
1E
100
AcDbEntity
  8
SA
100
AcDbLine
 10
212.622
 20
184.1039999036459
 30
0.0
 11
216.6057168574084
 21
186.4039999036459
 31
0.0
  0
LINE
  5
1F92
330
1E
100
AcDbEntity
  8
SA
100
AcDbLine
 10
216.6057168574084
 20
191.003999903646
 30
0.0
 11
216.6057168574084
 21
186.4039999036459
 31
0.0
  0
LINE
  5
1F93
330
1E
100
AcDbEntity
  8
SA
100
AcDbLine
 10
212.622
 20
193.3039999036459
 30
0.0
 11
216.6057168574084
 21
191.003999903646
 31
0.0
  0
CIRCLE
  5
1F94
330
1E
100
AcDbEntity
  8
SA
100
AcDbCircle
 10
212.622
 20
188.703999903646
 30
0.0
 40
2.5
  0
LINE
  5
1F95
330
1E
100
AcDbEntity
  8
SC
100
AcDbLine
 10
216.0719999999999
 20
122.6208101877047
 30
0.0
 11
209.172
 21
122.6208101877047
 31
0.0
  0
LINE
  5
1F96
330
1E
100
AcDbEntity
  8
SC
100
AcDbLine
 10
206.6219999999998
 20
110.7208101877049
 30
0.0
 11
205.1689189049993
 21
108.203999903646
 31
0.0
  0
LINE
  5
1F97
330
1E
100
AcDbEntity
  8
SC
100
AcDbLine
 10
218.622
 20
110.7208101877049
 30
0.0
 11
220.0750810950006
 21
108.203999903646
 31
0.0
  0
LINE
  5
1F98
330
1E
100
AcDbEntity
  8
SB
100
AcDbLine
 10
214.372
 20
127.9208101877049
 30
0.0
 11
215.122
 21
127.1708101877049
 31
0.0
  0
LINE
  5
1F99
330
1E
100
AcDbEntity
  8
SB
100
AcDbLine
 10
215.122
 20
127.170810187705
 30
0.0
 11
215.122
 21
122.6208101877047
 31
0.0
  0
LINE
  5
1F9A
330
1E
100
AcDbEntity
  8
SC
100
AcDbLine
 10
214.372
 20
127.9208101877049
 30
0.0
 11
214.372
 21
122.6208101877047
 31
0.0
  0
LINE
  5
1F9B
330
1E
100
AcDbEntity
  8
SB
100
AcDbLine
 10
210.872
 20
127.9208101877049
 30
0.0
 11
210.122
 21
127.1708101877049
 31
0.0
  0
LINE
  5
1F9C
330
1E
100
AcDbEntity
  8
SB
100
AcDbLine
 10
210.1219999999999
 20
127.1708101877049
 30
0.0
 11
210.1219999999999
 21
122.6208101877047
 31
0.0
  0
LINE
  5
1F9D
330
1E
100
AcDbEntity
  8
SC
100
AcDbLine
 10
210.872
 20
127.9208101877049
 30
0.0
 11
210.872
 21
122.6208101877047
 31
0.0
  0
LINE
  5
1F9E
330
1E
100
AcDbEntity
  8
SB
100
AcDbLine
 10
214.372
 20
127.9208101877049
 30
0.0
 11
210.8719999999999
 21
127.9208101877049
 31
0.0
  0
LINE
  5
1F9F
330
1E
100
AcDbEntity
  8
SC
100
AcDbLine
 10
215.122
 20
127.1708101877049
 30
0.0
 11
210.122
 21
127.1708101877049
 31
0.0
  0
ARC
  5
1FA0
330
1E
100
AcDbEntity
  8
SB
100
AcDbCircle
 10
216.0719999999999
 20
121.3641435210381
 30
0.0
 40
1.256666666666669
100
AcDbArc
 50
90.0
 51
156.2226839207433
  0
LINE
  5
1FA1
330
1E
100
AcDbEntity
  8
SB
100
AcDbLine
 10
216.0719999999999
 20
122.6208101877047
 30
0.0
 11
217.2219999999999
 21
121.8708101877047
 31
0.0
  0
ARC
  5
1FA2
330
1E
100
AcDbEntity
  8
SB
100
AcDbCircle
 10
216.0720000000001
 20
116.0141435210383
 30
0.0
 40
1.256666666666669
100
AcDbArc
 50
90.0
 51
156.2226839207433
  0
LINE
  5
1FA3
330
1E
100
AcDbEntity
  8
SB
100
AcDbLine
 10
216.0719999999999
 20
117.2708101877049
 30
0.0
 11
217.2219999999999
 21
116.5208101877049
 31
0.0
  0
LINE
  5
1FA4
330
1E
100
AcDbEntity
  8
SB
100
AcDbLine
 10
218.122
 20
117.2708101877048
 30
0.0
 11
218.1219999999999
 21
118.8708101877047
 31
0.0
  0
LINE
  5
1FA5
330
1E
100
AcDbEntity
  8
SB
100
AcDbLine
 10
217.2219999999999
 20
121.8708101877047
 30
0.0
 11
217.2219999999999
 21
118.8708101877047
 31
0.0
  0
LINE
  5
1FA6
330
1E
100
AcDbEntity
  8
SB
100
AcDbLine
 10
214.922
 20
121.8708101877047
 30
0.0
 11
214.922
 21
118.8708101877047
 31
0.0
  0
ARC
  5
1FA7
330
1E
100
AcDbEntity
  8
SB
100
AcDbCircle
 10
209.172
 20
121.3641435210381
 30
0.0
 40
1.256666666666669
100
AcDbArc
 50
23.77731607925673
 51
90.0
  0
LINE
  5
1FA8
330
1E
100
AcDbEntity
  8
SB
100
AcDbLine
 10
209.172
 20
122.6208101877047
 30
0.0
 11
208.022
 21
121.8708101877047
 31
0.0
  0
ARC
  5
1FA9
330
1E
100
AcDbEntity
  8
SB
100
AcDbCircle
 10
209.172
 20
116.0141435210383
 30
0.0
 40
1.256666666666669
100
AcDbArc
 50
23.77731607925673
 51
90.0
  0
LINE
  5
1FAA
330
1E
100
AcDbEntity
  8
SB
100
AcDbLine
 10
209.172
 20
117.2708101877049
 30
0.0
 11
208.0219999999999
 21
116.5208101877049
 31
0.0
  0
LINE
  5
1FAB
330
1E
100
AcDbEntity
  8
SB
100
AcDbLine
 10
207.122
 20
117.2708101877048
 30
0.0
 11
207.122
 21
118.8708101877048
 31
0.0
  0
LINE
  5
1FAC
330
1E
100
AcDbEntity
  8
SB
100
AcDbLine
 10
208.022
 20
121.8708101877046
 30
0.0
 11
208.022
 21
118.8708101877047
 31
0.0
  0
LINE
  5
1FAD
330
1E
100
AcDbEntity
  8
SB
100
AcDbLine
 10
210.3219999999998
 20
121.8708101877047
 30
0.0
 11
210.3219999999999
 21
118.8708101877047
 31
0.0
  0
LINE
  5
1FAE
330
1E
100
AcDbEntity
  8
SB
100
AcDbLine
 10
218.122
 20
117.2708101877049
 30
0.0
 11
207.122
 21
117.2708101877048
 31
0.0
  0
ARC
  5
1FAF
330
1E
100
AcDbEntity
  8
SB
100
AcDbCircle
 10
212.622
 20
113.3691435210382
 30
0.0
 40
3.901666666666711
100
AcDbArc
 50
53.87905612760297
 51
126.120943872397
  0
LINE
  5
1FB0
330
1E
100
AcDbEntity
  8
SB
100
AcDbLine
 10
218.122
 20
118.0708101877048
 30
0.0
 11
207.122
 21
118.0708101877048
 31
0.0
  0
LINE
  5
1FB1
330
1E
100
AcDbEntity
  8
SB
100
AcDbLine
 10
218.122
 20
118.8708101877047
 30
0.0
 11
207.122
 21
118.8708101877048
 31
0.0
  0
ARC
  5
1FB2
330
1E
100
AcDbEntity
  8
SB
100
AcDbCircle
 10
212.622
 20
118.719143521038
 30
0.0
 40
3.901666666666711
100
AcDbArc
 50
53.87905612760297
 51
126.120943872397
  0
LINE
  5
1FB3
330
1E
100
AcDbEntity
  8
SB
100
AcDbLine
 10
219.622
 20
110.7208101877049
 30
0.0
 11
219.622
 21
112.7208101877049
 31
0.0
  0
LINE
  5
1FB4
330
1E
100
AcDbEntity
  8
SB
100
AcDbLine
 10
218.1219999999999
 20
112.7208101877049
 30
0.0
 11
218.122
 21
113.520810187705
 31
0.0
  0
LINE
  5
1FB5
330
1E
100
AcDbEntity
  8
SB
100
AcDbLine
 10
207.122
 20
112.7208101877049
 30
0.0
 11
207.122
 21
113.5208101877049
 31
0.0
  0
LINE
  5
1FB6
330
1E
100
AcDbEntity
  8
SB
100
AcDbLine
 10
218.1219999999999
 20
113.5208101877049
 30
0.0
 11
207.122
 21
113.5208101877049
 31
0.0
  0
LINE
  5
1FB7
330
1E
100
AcDbEntity
  8
SB
100
AcDbLine
 10
208.0219999999999
 20
116.5208101877048
 30
0.0
 11
208.0219999999999
 21
113.5208101877049
 31
0.0
  0
LINE
  5
1FB8
330
1E
100
AcDbEntity
  8
SB
100
AcDbLine
 10
210.3219999999998
 20
116.5208101877049
 30
0.0
 11
210.3219999999999
 21
113.5208101877049
 31
0.0
  0
LINE
  5
1FB9
330
1E
100
AcDbEntity
  8
SB
100
AcDbLine
 10
217.2219999999999
 20
116.5208101877048
 30
0.0
 11
217.2219999999999
 21
113.5208101877049
 31
0.0
  0
LINE
  5
1FBA
330
1E
100
AcDbEntity
  8
SB
100
AcDbLine
 10
214.922
 20
116.5208101877049
 30
0.0
 11
214.922
 21
113.5208101877049
 31
0.0
  0
LINE
  5
1FBB
330
1E
100
AcDbEntity
  8
SB
100
AcDbLine
 10
205.622
 20
110.7208101877049
 30
0.0
 11
205.622
 21
112.7208101877049
 31
0.0
  0
LINE
  5
1FBC
330
1E
100
AcDbEntity
  8
SB
100
AcDbLine
 10
219.622
 20
110.7208101877049
 30
0.0
 11
205.6219999999999
 21
110.7208101877049
 31
0.0
  0
LINE
  5
1FBD
330
1E
100
AcDbEntity
  8
SB
100
AcDbLine
 10
219.622
 20
112.7208101877049
 30
0.0
 11
205.622
 21
112.7208101877049
 31
0.0
  0
LINE
  5
1FBE
330
1E
100
AcDbEntity
  8
SC
100
AcDbLine
 10
219.622
 20
112.2208101877049
 30
0.0
 11
205.622
 21
112.2208101877049
 31
0.0
  0
LINE
  5
1FBF
330
1E
100
AcDbEntity
  8
SC
100
AcDbLine
 10
219.622
 20
111.7208101877049
 30
0.0
 11
205.622
 21
111.7208101877049
 31
0.0
  0
LINE
  5
1FC0
330
1E
100
AcDbEntity
  8
SC
100
AcDbLine
 10
219.622
 20
111.2208101877049
 30
0.0
 11
205.622
 21
111.2208101877049
 31
0.0
  0
LINE
  5
1FC1
330
1E
100
AcDbEntity
  8
HO
100
AcDbLine
 10
212.622
 20
99.72081018770495
 30
0.0
 11
212.6219999999999
 21
132.9208101877049
 31
0.0
  0
LINE
  5
1FC2
330
1E
100
AcDbEntity
  8
HO
100
AcDbLine
 10
105.122
 20
178.703999903646
 30
0.0
 11
320.1220000000001
 21
178.7039999036459
 31
0.0
  0
ENDSEC
  0
SECTION
  2
OBJECTS
  0
DICTIONARY
  5
C
330
0
100
AcDbDictionary
281
     1
  3
ACAD_COLOR
350
1793
  3
ACAD_GROUP
350
D
  3
ACAD_LAYOUT
350
19
  3
ACAD_MATERIAL
350
1792
  3
ACAD_MLINESTYLE
350
16
  3
ACAD_PLOTSETTINGS
350
18
  3
ACAD_PLOTSTYLENAME
350
E
  3
ACAD_TABLESTYLE
350
17A5
  3
ACDBHEADERROUNDTRIPXREC
350
1FCC
  3
AcDbVariableDictionary
350
17B5
  0
DICTIONARY
  5
1793
102
{ACAD_REACTORS
330
C
102
}
330
C
100
AcDbDictionary
281
     1
  0
DICTIONARY
  5
D
102
{ACAD_REACTORS
330
C
102
}
330
C
100
AcDbDictionary
281
     1
  0
DICTIONARY
  5
19
102
{ACAD_REACTORS
330
C
102
}
330
C
100
AcDbDictionary
281
     1
  3
Model
350
21
  3
ﾚｲｱｳﾄ1
350
1D
  0
DICTIONARY
  5
1792
102
{ACAD_REACTORS
330
C
102
}
330
C
100
AcDbDictionary
281
     1
  0
DICTIONARY
  5
16
102
{ACAD_REACTORS
330
C
102
}
330
C
100
AcDbDictionary
281
     1
  3
Standard
350
17
  0
DICTIONARY
  5
18
102
{ACAD_REACTORS
330
C
102
}
330
C
100
AcDbDictionary
281
     1
  0
ACDBDICTIONARYWDFLT
  5
E
102
{ACAD_REACTORS
330
C
102
}
330
C
100
AcDbDictionary
281
     1
  3
Normal
350
F
100
AcDbDictionaryWithDefault
340
F
  0
DICTIONARY
  5
17A5
102
{ACAD_REACTORS
330
C
102
}
330
C
100
AcDbDictionary
281
     1
  3
Standard
350
17A6
  0
DICTIONARY
  5
1FCC
102
{ACAD_REACTORS
330
C
102
}
330
C
100
AcDbDictionary
281
     1
  3
COLORDICT
350
1FCE
  3
MATERIALDICT
350
1FCD
  0
DICTIONARY
  5
17B5
102
{ACAD_REACTORS
330
C
102
}
330
C
100
AcDbDictionary
281
     1
  3
CTABLESTYLE
350
17B6
  3
DIMASSOC
350
1C49
  3
PROJECTNAME
350
1C4A
  0
LAYOUT
  5
21
102
{ACAD_XDICTIONARY
360
1FD1
102
}
102
{ACAD_REACTORS
330
19
102
}
330
19
100
AcDbPlotSettings
  1

  2
PrimoPDF
  4
A4
  6
HYOU
 40
3.174999952316284
 41
3.174999952316284
 42
3.175003051757812
 43
3.17498779296875
 44
210.0156707763672
 45
297.0106506347656
 46
-1.0
 47
10.0
 48
0.0
 49
0.0
140
0.0
141
0.0
142
1.0
143
1.458272291292898
 70
 11952
 72
     1
 73
     1
 74
     2
  7
monochrome.ctb
 75
     0
147
0.6857429891323
148
0.0
149
0.0
100
AcDbLayout
  1
Model
 70
     1
 71
     0
 10
0.0
 20
0.0
 11
12.0
 21
9.0
 12
0.0
 22
0.0
 32
0.0
 14
0.0
 24
0.0
 34
0.0
 15
0.0
 25
0.0
 35
0.0
146
0.0
 13
0.0
 23
0.0
 33
0.0
 16
1.0
 26
0.0
 36
0.0
 17
0.0
 27
1.0
 37
0.0
 76
     0
330
1E
1001
ACAD_PSEXT
1000
FX DocuPrint 205
1000
FX DocuPrint 205
1000
USB001
1000

1070
     0
  0
LAYOUT
  5
1D
102
{ACAD_XDICTIONARY
360
1FCF
102
}
102
{ACAD_REACTORS
330
19
102
}
330
19
100
AcDbPlotSettings
  1

  2
EPSON LP-1500S
  4

  6

 40
0.0
 41
0.0
 42
0.0
 43
0.0
 44
0.0
 45
0.0
 46
0.0
 47
0.0
 48
0.0
 49
0.0
140
0.0
141
0.0
142
1.0
143
1.0
 70
   688
 72
     0
 73
     0
 74
     5
  7
monochrome.ctb
 75
    16
147
1.0
148
0.0
149
0.0
100
AcDbLayout
  1
ﾚｲｱｳﾄ1
 70
     0
 71
     1
 10
0.0
 20
0.0
 11
12.0
 21
9.0
 12
0.0
 22
0.0
 32
0.0
 14
1.000000000000000E+20
 24
1.000000000000000E+20
 34
1.000000000000000E+20
 15
-1.000000000000000E+20
 25
-1.000000000000000E+20
 35
-1.000000000000000E+20
146
0.0
 13
0.0
 23
0.0
 33
0.0
 16
1.0
 26
0.0
 36
0.0
 17
0.0
 27
1.0
 37
0.0
 76
     0
330
1A
  0
MLINESTYLE
  5
17
102
{ACAD_REACTORS
330
16
102
}
330
16
100
AcDbMlineStyle
  2
STANDARD
 70
     0
  3

 62
   256
 51
90.0
 52
90.0
 71
     2
 49
0.5
 62
   256
  6
BYLAYER
 49
-0.5
 62
   256
  6
BYLAYER
  0
ACDBPLACEHOLDER
  5
F
102
{ACAD_REACTORS
330
E
102
}
330
E
  0
ACAD_PROXY_OBJECT
  5
17A6
102
{ACAD_REACTORS
330
17A5
102
}
330
17A5
100
AcDbProxyObject
 90
      499
 91
      503
 95
       25
 70
     0
 93
     1841
310
4214DD185B99185C9928B81E85EB51B8AE3F2E07A17AD46E2B8FC02B5E8DC0F42B1CFD028000000C1008070000C3001FDFF8000000C1003FBFF000000182007F7FE00000030400FEFFC00000060801FDFF8000000C1003FBFF00000018200000000000000681FA0B0000001820100E000186003FBFF000000182007F7FE000
310
00030400FEFFC00000060801FDFF8000000C1003FBFF000000182007F7FE000000304000AD7A3703D0AC73F4160000003040201C00030C007F7FE00000030400FEFFC00000060801FDFF8000000C1003FBFF000000182007F7FE00000030400FEFFC000000608000
340
11
340
11
340
11
 94
        0
1001
ACAD
1000
AcRTDxfName
1000
TABLESTYLE
  0
XRECORD
  5
1FCE
102
{ACAD_REACTORS
330
1FCC
102
}
330
1FCC
100
AcDbXrecord
280
     1
340
1793
  0
XRECORD
  5
1FCD
102
{ACAD_REACTORS
330
1FCC
102
}
330
1FCC
100
AcDbXrecord
280
     1
340
1792
  0
DICTIONARYVAR
  5
17B6
102
{ACAD_REACTORS
330
17B5
102
}
330
17B5
100
DictionaryVariables
280
     0
  1
STANDARD
  0
DICTIONARYVAR
  5
1C49
102
{ACAD_REACTORS
330
17B5
102
}
330
17B5
100
DictionaryVariables
280
     0
  1
1
  0
DICTIONARYVAR
  5
1C4A
102
{ACAD_REACTORS
330
17B5
102
}
330
17B5
100
DictionaryVariables
280
     0
  1

  0
DICTIONARY
  5
1FD1
330
21
100
AcDbDictionary
280
     1
281
     1
  3
ACAD_XREC_ROUNDTRIP
360
1FD2
  0
DICTIONARY
  5
1FCF
330
1D
100
AcDbDictionary
280
     1
281
     1
  3
ACAD_XREC_ROUNDTRIP
360
1FD0
  0
XRECORD
  5
1FD2
102
{ACAD_REACTORS
330
1FD1
102
}
330
1FD1
100
AcDbXrecord
280
     1
102
SHADEPLOT
 70
     0
102
SHADEPLOTRESLEVEL
 70
     2
102
SHADEPLOTCUSTOMDPI
 70
   300
  0
XRECORD
  5
1FD0
102
{ACAD_REACTORS
330
1FCF
102
}
330
1FCF
100
AcDbXrecord
280
     1
102
SHADEPLOT
 70
     0
102
SHADEPLOTRESLEVEL
 70
     2
102
SHADEPLOTCUSTOMDPI
 70
   300
  0
ENDSEC
  0
EOF
