  0
SECTION
  2
HEADER
  9
$ACADVER
  1
AC1015
  9
$ACADMAINTVER
 70
    20
  9
$DWGCODEPAGE
  3
ANSI_932
  9
$INSBASE
 10
0.0
 20
0.0
 30
0.0
  9
$EXTMIN
 10
3.191529301916716
 20
2.71005318489631
 30
-0.0000000000000129
  9
$EXTMAX
 10
404.5358285966049
 20
294.199310990981
 30
0.0000000000000023
  9
$LIMMIN
 10
0.0
 20
0.0
  9
$LIMMAX
 10
420.0
 20
297.0
  9
$ORTHOMODE
 70
     1
  9
$REGENMODE
 70
     1
  9
$FILLMODE
 70
     1
  9
$QTEXTMODE
 70
     0
  9
$MIRRTEXT
 70
     1
  9
$LTSCALE
 40
12.0
  9
$ATTMODE
 70
     1
  9
$TEXTSIZE
 40
10.0
  9
$TRACEWID
 40
0.3
  9
$TEXTSTYLE
  7
0
  9
$CLAYER
  8
SC
  9
$CELTYPE
  6
ByLayer
  9
$CECOLOR
 62
   256
  9
$CELTSCALE
 40
1.0
  9
$DISPSILH
 70
     0
  9
$DIMSCALE
 40
1.0
  9
$DIMASZ
 40
2.0
  9
$DIMEXO
 40
0.0625
  9
$DIMDLI
 40
0.38
  9
$DIMRND
 40
0.0
  9
$DIMDLE
 40
0.0
  9
$DIMEXE
 40
0.18
  9
$DIMTP
 40
0.0
  9
$DIMTM
 40
0.0
  9
$DIMTXT
 40
2.0
  9
$DIMCEN
 40
0.09
  9
$DIMTSZ
 40
0.0
  9
$DIMTOL
 70
     0
  9
$DIMLIM
 70
     0
  9
$DIMTIH
 70
     1
  9
$DIMTOH
 70
     1
  9
$DIMSE1
 70
     0
  9
$DIMSE2
 70
     0
  9
$DIMTAD
 70
     0
  9
$DIMZIN
 70
     0
  9
$DIMBLK
  1

  9
$DIMASO
 70
     1
  9
$DIMSHO
 70
     0
  9
$DIMPOST
  1

  9
$DIMAPOST
  1

  9
$DIMALT
 70
     0
  9
$DIMALTD
 70
     2
  9
$DIMALTF
 40
25.4
  9
$DIMLFAC
 40
1.0
  9
$DIMTOFL
 70
     0
  9
$DIMTVP
 40
0.0
  9
$DIMTIX
 70
     0
  9
$DIMSOXD
 70
     0
  9
$DIMSAH
 70
     0
  9
$DIMBLK1
  1

  9
$DIMBLK2
  1

  9
$DIMSTYLE
  2
Standard
  9
$DIMCLRD
 70
     0
  9
$DIMCLRE
 70
     0
  9
$DIMCLRT
 70
     0
  9
$DIMTFAC
 40
1.0
  9
$DIMGAP
 40
0.09
  9
$DIMJUST
 70
     0
  9
$DIMSD1
 70
     0
  9
$DIMSD2
 70
     0
  9
$DIMTOLJ
 70
     1
  9
$DIMTZIN
 70
     0
  9
$DIMALTZ
 70
     0
  9
$DIMALTTZ
 70
     0
  9
$DIMUPT
 70
     0
  9
$DIMDEC
 70
     4
  9
$DIMTDEC
 70
     4
  9
$DIMALTU
 70
     2
  9
$DIMALTTD
 70
     2
  9
$DIMTXSTY
  7
STANDARD
  9
$DIMAUNIT
 70
     0
  9
$DIMADEC
 70
     0
  9
$DIMALTRND
 40
0.0
  9
$DIMAZIN
 70
     0
  9
$DIMDSEP
 70
    46
  9
$DIMATFIT
 70
     3
  9
$DIMFRAC
 70
     0
  9
$DIMLDRBLK
  1

  9
$DIMLUNIT
 70
     2
  9
$DIMLWD
 70
    -2
  9
$DIMLWE
 70
    -2
  9
$DIMTMOVE
 70
     0
  9
$LUNITS
 70
     2
  9
$LUPREC
 70
     4
  9
$SKETCHINC
 40
0.1
  9
$FILLETRAD
 40
0.0
  9
$AUNITS
 70
     0
  9
$AUPREC
 70
     1
  9
$MENU
  1
ACAD
  9
$ELEVATION
 40
0.0
  9
$PELEVATION
 40
0.0
  9
$THICKNESS
 40
0.0
  9
$LIMCHECK
 70
     0
  9
$CHAMFERA
 40
0.0
  9
$CHAMFERB
 40
0.0
  9
$CHAMFERC
 40
0.0
  9
$CHAMFERD
 40
0.0
  9
$SKPOLY
 70
     0
  9
$TDCREATE
 40
2450808.702418171
  9
$TDUCREATE
 40
2450808.327418172
  9
$TDUPDATE
 40
2456199.695729885
  9
$TDUUPDATE
 40
2456199.320729884
  9
$TDINDWG
 40
1.7126359491
  9
$TDUSRTIMER
 40
1.7126359491
  9
$USRTIMER
 70
     1
  9
$ANGBASE
 50
0.0
  9
$ANGDIR
 70
     0
  9
$PDMODE
 70
     0
  9
$PDSIZE
 40
0.0
  9
$PLINEWID
 40
1.0
  9
$SPLFRAME
 70
     0
  9
$SPLINETYPE
 70
     6
  9
$SPLINESEGS
 70
     8
  9
$HANDSEED
  5
1D83
  9
$SURFTAB1
 70
     6
  9
$SURFTAB2
 70
     6
  9
$SURFTYPE
 70
     6
  9
$SURFU
 70
     6
  9
$SURFV
 70
     6
  9
$UCSBASE
  2

  9
$UCSNAME
  2

  9
$UCSORG
 10
0.0
 20
0.0
 30
0.0
  9
$UCSXDIR
 10
1.0
 20
0.0
 30
0.0
  9
$UCSYDIR
 10
0.0
 20
1.0
 30
0.0
  9
$UCSORTHOREF
  2

  9
$UCSORTHOVIEW
 70
     0
  9
$UCSORGTOP
 10
0.0
 20
0.0
 30
0.0
  9
$UCSORGBOTTOM
 10
0.0
 20
0.0
 30
0.0
  9
$UCSORGLEFT
 10
0.0
 20
0.0
 30
0.0
  9
$UCSORGRIGHT
 10
0.0
 20
0.0
 30
0.0
  9
$UCSORGFRONT
 10
0.0
 20
0.0
 30
0.0
  9
$UCSORGBACK
 10
0.0
 20
0.0
 30
0.0
  9
$PUCSBASE
  2

  9
$PUCSNAME
  2

  9
$PUCSORG
 10
0.0
 20
0.0
 30
0.0
  9
$PUCSXDIR
 10
1.0
 20
0.0
 30
0.0
  9
$PUCSYDIR
 10
0.0
 20
1.0
 30
0.0
  9
$PUCSORTHOREF
  2

  9
$PUCSORTHOVIEW
 70
     0
  9
$PUCSORGTOP
 10
0.0
 20
0.0
 30
0.0
  9
$PUCSORGBOTTOM
 10
0.0
 20
0.0
 30
0.0
  9
$PUCSORGLEFT
 10
0.0
 20
0.0
 30
0.0
  9
$PUCSORGRIGHT
 10
0.0
 20
0.0
 30
0.0
  9
$PUCSORGFRONT
 10
0.0
 20
0.0
 30
0.0
  9
$PUCSORGBACK
 10
0.0
 20
0.0
 30
0.0
  9
$USERI1
 70
     0
  9
$USERI2
 70
     0
  9
$USERI3
 70
     0
  9
$USERI4
 70
     0
  9
$USERI5
 70
     0
  9
$USERR1
 40
0.0
  9
$USERR2
 40
0.0
  9
$USERR3
 40
0.0
  9
$USERR4
 40
0.0
  9
$USERR5
 40
0.0
  9
$WORLDVIEW
 70
     1
  9
$SHADEDGE
 70
     3
  9
$SHADEDIF
 70
    70
  9
$TILEMODE
 70
     1
  9
$MAXACTVP
 70
    16
  9
$PINSBASE
 10
0.0
 20
0.0
 30
0.0
  9
$PLIMCHECK
 70
     0
  9
$PEXTMIN
 10
1.000000000000000E+20
 20
1.000000000000000E+20
 30
1.000000000000000E+20
  9
$PEXTMAX
 10
-1.000000000000000E+20
 20
-1.000000000000000E+20
 30
-1.000000000000000E+20
  9
$PLIMMIN
 10
0.0
 20
0.0
  9
$PLIMMAX
 10
12.0
 20
9.0
  9
$UNITMODE
 70
     0
  9
$VISRETAIN
 70
     0
  9
$PLINEGEN
 70
     0
  9
$PSLTSCALE
 70
     0
  9
$TREEDEPTH
 70
  3020
  9
$CMLSTYLE
  2
Standard
  9
$CMLJUST
 70
     0
  9
$CMLSCALE
 40
1.0
  9
$PROXYGRAPHICS
 70
     1
  9
$MEASUREMENT
 70
     0
  9
$CELWEIGHT
370
    -1
  9
$ENDCAPS
280
     0
  9
$JOINSTYLE
280
     0
  9
$LWDISPLAY
290
     0
  9
$INSUNITS
 70
     0
  9
$HYPERLINKBASE
  1

  9
$STYLESHEET
  1
monochrome.ctb
  9
$XEDIT
290
     1
  9
$CEPSNTYPE
380
     0
  9
$PSTYLEMODE
290
     1
  9
$FINGERPRINTGUID
  2
{51BC8342-4694-11D4-A1F9-0060672295C7}
  9
$VERSIONGUID
  2
{A2388ED2-5878-4752-BDC7-D76D3EB2C664}
  9
$EXTNAMES
290
     1
  9
$PSVPSCALE
 40
0.0
  9
$OLESTARTUP
290
     0
  0
ENDSEC
  0
SECTION
  2
CLASSES
  0
CLASS
  1
ACDBDICTIONARYWDFLT
  2
AcDbDictionaryWithDefault
  3
ObjectDBX Classes
 90
        0
280
     0
281
     0
  0
CLASS
  1
ACDBPLACEHOLDER
  2
AcDbPlaceHolder
  3
ObjectDBX Classes
 90
        0
280
     0
281
     0
  0
CLASS
  1
LAYOUT
  2
AcDbLayout
  3
ObjectDBX Classes
 90
        0
280
     0
281
     0
  0
CLASS
  1
TABLESTYLE
  2
AcDbTableStyle
  3
ObjectDBX Classes
 90
     2047
280
     0
281
     0
  0
CLASS
  1
DICTIONARYVAR
  2
AcDbDictionaryVar
  3
ObjectDBX Classes
 90
        0
280
     0
281
     0
  0
ENDSEC
  0
SECTION
  2
TABLES
  0
TABLE
  2
VPORT
  5
8
330
0
100
AcDbSymbolTable
 70
     5
  0
VPORT
  5
1D7B
330
8
100
AcDbSymbolTableRecord
100
AcDbViewportTableRecord
  2
*Active
 70
     0
 10
0.0
 20
0.0
 11
1.0
 21
1.0
 12
210.0
 22
148.5
 13
0.0
 23
0.0
 14
0.001
 24
0.001
 15
10.0
 25
10.0
 16
0.0
 26
0.0
 36
1.0
 17
0.0
 27
0.0
 37
0.0
 40
300.6
 41
2.417004048582995
 42
50.0
 43
0.0
 44
0.0
 50
0.0
 51
0.0
 71
     0
 72
  2000
 73
     1
 74
     0
 75
     1
 76
     1
 77
     0
 78
     2
281
     0
 65
     1
110
0.0
120
0.0
130
0.0
111
1.0
121
0.0
131
0.0
112
0.0
122
1.0
132
0.0
 79
     0
146
0.0
  0
ENDTAB
  0
TABLE
  2
LTYPE
  5
5
330
0
100
AcDbSymbolTable
 70
     4
  0
LTYPE
  5
13
330
5
100
AcDbSymbolTableRecord
100
AcDbLinetypeTableRecord
  2
ByBlock
 70
     0
  3

 72
    65
 73
     0
 40
0.0
  0
LTYPE
  5
14
330
5
100
AcDbSymbolTableRecord
100
AcDbLinetypeTableRecord
  2
ByLayer
 70
     0
  3

 72
    65
 73
     0
 40
0.0
  0
LTYPE
  5
15
330
5
100
AcDbSymbolTableRecord
100
AcDbLinetypeTableRecord
  2
CONTINUOUS
 70
     0
  3
実線
 72
    65
 73
     0
 40
0.0
  0
LTYPE
  5
23
330
5
100
AcDbSymbolTableRecord
100
AcDbLinetypeTableRecord
  2
CENTER
 70
     0
  3
____ _ ____ _ ____ _ ____ _ ____ _ ____ _ ____
 72
    65
 73
     4
 40
2.0
 49
1.25
 74
     0
 49
-0.25
 74
     0
 49
0.25
 74
     0
 49
-0.25
 74
     0
  0
LTYPE
  5
24
330
5
100
AcDbSymbolTableRecord
100
AcDbLinetypeTableRecord
  2
HIDDEN
 70
     0
  3
_ _ _ _ _ _ _ _ _ _ _ _ _ _ _ _ _ _ _ _ _ _ _
 72
    65
 73
     2
 40
0.375
 49
0.25
 74
     0
 49
-0.125
 74
     0
  0
LTYPE
  5
1C0C
330
5
100
AcDbSymbolTableRecord
100
AcDbLinetypeTableRecord
  2
PHANTOM2
 70
     0
  3
Phantom (.5x) ___ _ _ ___ _ _ ___ _ _ ___ _ _
 72
    65
 73
     6
 40
1.25
 49
0.625
 74
     0
 49
-0.125
 74
     0
 49
0.125
 74
     0
 49
-0.125
 74
     0
 49
0.125
 74
     0
 49
-0.125
 74
     0
  0
ENDTAB
  0
TABLE
  2
LAYER
  5
2
330
0
100
AcDbSymbolTable
 70
     9
  0
LAYER
  5
10
330
2
100
AcDbSymbolTableRecord
100
AcDbLayerTableRecord
  2
0
 70
     0
 62
     7
  6
CONTINUOUS
370
    -3
390
F
  0
LAYER
  5
28
330
2
100
AcDbSymbolTableRecord
100
AcDbLayerTableRecord
  2
HO
 70
     0
 62
     2
  6
CENTER
370
    13
390
F
  0
LAYER
  5
29
330
2
100
AcDbSymbolTableRecord
100
AcDbLayerTableRecord
  2
HA
 70
     0
 62
     4
  6
HIDDEN
370
    13
390
F
  0
LAYER
  5
2A
330
2
100
AcDbSymbolTableRecord
100
AcDbLayerTableRecord
  2
SB
 70
     0
 62
     1
  6
CONTINUOUS
370
    20
390
F
  0
LAYER
  5
2B
330
2
100
AcDbSymbolTableRecord
100
AcDbLayerTableRecord
  2
SA
 70
     0
 62
     7
  6
CONTINUOUS
370
    30
390
F
  0
LAYER
  5
2C
330
2
100
AcDbSymbolTableRecord
100
AcDbLayerTableRecord
  2
MO
 70
     0
 62
     3
  6
CONTINUOUS
370
    20
390
F
  0
LAYER
  5
2D
330
2
100
AcDbSymbolTableRecord
100
AcDbLayerTableRecord
  2
SC
 70
     0
 62
     6
  6
CONTINUOUS
370
    13
390
F
  0
LAYER
  5
2E
330
2
100
AcDbSymbolTableRecord
100
AcDbLayerTableRecord
  2
DEFPOINTS
 70
     0
 62
     7
  6
CONTINUOUS
290
     0
370
    -3
390
F
  0
LAYER
  5
1397
330
2
100
AcDbSymbolTableRecord
100
AcDbLayerTableRecord
  2
sd
 70
     0
 62
     1
  6
CONTINUOUS
370
    20
390
F
  0
ENDTAB
  0
TABLE
  2
STYLE
  5
3
330
0
100
AcDbSymbolTable
 70
     3
  0
STYLE
  5
11
330
3
100
AcDbSymbolTableRecord
100
AcDbTextStyleTableRecord
  2
STANDARD
 70
     0
 40
0.0
 41
1.0
 50
0.0
 71
     0
 42
0.2
  3
TXT
  4

  0
STYLE
  5
22
330
3
100
AcDbSymbolTableRecord
100
AcDbTextStyleTableRecord
  2
0
 70
     0
 40
0.0
 41
1.0
 50
0.0
 71
     0
 42
10.0
  3
SIMPLEX
  4
BIGFONT
  0
STYLE
  5
1C0B
330
3
100
AcDbSymbolTableRecord
100
AcDbTextStyleTableRecord
  2

 70
     1
 40
0.0
 41
1.0
 50
0.0
 71
     0
 42
10.0
  3
ltypeshp.shx
  4

  0
ENDTAB
  0
TABLE
  2
VIEW
  5
6
330
0
100
AcDbSymbolTable
 70
     1
  0
VIEW
  5
25
330
6
100
AcDbSymbolTableRecord
100
AcDbViewTableRecord
  2
HYOU
 70
     0
 40
162.519
 10
329.94
 20
84.5855
 41
158.206
 11
0.0
 21
0.0
 31
1.0
 12
0.0
 22
0.0
 32
0.0
 42
0.0
 43
0.0
 44
0.0
 50
0.0
 71
     0
281
     0
 72
     0
  0
ENDTAB
  0
TABLE
  2
UCS
  5
7
330
0
100
AcDbSymbolTable
 70
     0
  0
ENDTAB
  0
TABLE
  2
APPID
  5
9
330
0
100
AcDbSymbolTable
 70
     2
  0
APPID
  5
12
330
9
100
AcDbSymbolTableRecord
100
AcDbRegAppTableRecord
  2
ACAD
 70
     0
  0
APPID
  5
17B3
330
9
100
AcDbSymbolTableRecord
100
AcDbRegAppTableRecord
  2
ACAD_PSEXT
 70
     0
  0
ENDTAB
  0
TABLE
  2
DIMSTYLE
  5
A
330
0
100
AcDbSymbolTable
 70
     1
100
AcDbDimStyleTable
 71
     1
340
3C3
  0
DIMSTYLE
105
3C3
330
A
100
AcDbSymbolTableRecord
100
AcDbDimStyleTableRecord
  2
Standard
 70
     0
 41
2.0
140
2.0
340
11
  0
ENDTAB
  0
TABLE
  2
BLOCK_RECORD
  5
1
330
0
100
AcDbSymbolTable
 70
     4
  0
BLOCK_RECORD
  5
1E
330
1
100
AcDbSymbolTableRecord
100
AcDbBlockTableRecord
  2
*Model_Space
340
21
  0
BLOCK_RECORD
  5
1A
330
1
100
AcDbSymbolTableRecord
100
AcDbBlockTableRecord
  2
*Paper_Space
340
1D
  0
BLOCK_RECORD
  5
1BF1
330
1
100
AcDbSymbolTableRecord
100
AcDbBlockTableRecord
  2
A$C168224A4
340
0
  0
ENDTAB
  0
ENDSEC
  0
SECTION
  2
BLOCKS
  0
BLOCK
  5
31
330
1E
100
AcDbEntity
  8
0
100
AcDbBlockBegin
  2
*Model_Space
 70
     0
 10
0.0
 20
0.0
 30
0.0
  3
*Model_Space
  1

  0
ENDBLK
  5
32
330
1E
100
AcDbEntity
  8
0
100
AcDbBlockEnd
  0
BLOCK
  5
2F
330
1A
100
AcDbEntity
 67
     1
  8
0
100
AcDbBlockBegin
  2
*Paper_Space
 70
     0
 10
0.0
 20
0.0
 30
0.0
  3
*Paper_Space
  1

  0
ENDBLK
  5
30
330
1A
100
AcDbEntity
 67
     1
  8
0
100
AcDbBlockEnd
  0
BLOCK
  5
1BF7
330
1BF1
100
AcDbEntity
  8
0
100
AcDbBlockBegin
  2
A$C168224A4
 70
     0
 10
0.0
 20
0.0
 30
0.0
  3
A$C168224A4
  1

  0
TEXT
  5
1BF2
330
1BF1
100
AcDbEntity
  8
MO
100
AcDbText
 10
29.06392589340328
 20
15.78399955256054
 30
0.0
 40
3.599999999999999
  1
ヒーターバンド
  7
0
100
AcDbText
  0
TEXT
  5
1BF3
330
1BF1
100
AcDbEntity
  8
MO
100
AcDbText
 10
16.98844636234099
 20
21.7352072125702
 30
0.0
 40
3.599999999999999
  1
ヒーター（C）
  7
0
100
AcDbText
  0
LINE
  5
1BF4
330
1BF1
100
AcDbEntity
  8
SC
100
AcDbLine
 10
14.63431328166325
 20
20.85448773706838
 30
0.0
 11
59.28792531728698
 21
20.85448773706838
 31
0.0
  0
LINE
  5
1BF5
330
1BF1
100
AcDbEntity
  8
SC
100
AcDbLine
 10
0.3999994263709823
 20
0.3999998947063545
 30
0.0
 11
14.63431328166325
 21
20.85448773706838
 31
0.0
  0
CIRCLE
  5
1BF6
330
1BF1
100
AcDbEntity
  8
SC
100
AcDbCircle
 10
0.3999994263709823
 20
0.3999998947063545
 30
0.0
 40
0.4
  0
ENDBLK
  5
1BF8
330
1BF1
100
AcDbEntity
  8
0
100
AcDbBlockEnd
  0
ENDSEC
  0
SECTION
  2
ENTITIES
  0
TEXT
  5
61
330
1E
100
AcDbEntity
  8
MO
100
AcDbText
 10
328.5
 20
53.5
 30
0.0
 40
4.0
  1

  7
0
 72
     1
 11
328.5
 21
53.5
 31
0.0
100
AcDbText
  0
TEXT
  5
62
330
1E
100
AcDbEntity
  8
MO
100
AcDbText
 10
328.5
 20
47.0
 30
0.0
 40
4.0
  1

  7
0
 72
     1
 11
328.5
 21
47.0
 31
0.0
100
AcDbText
  0
TEXT
  5
63
330
1E
100
AcDbEntity
  8
MO
100
AcDbText
 10
328.5
 20
34.0
 30
0.0
 40
4.0
  1

  7
0
 72
     1
 11
328.5
 21
34.0
 31
0.0
100
AcDbText
  0
TEXT
  5
6E
330
1E
100
AcDbEntity
  8
MO
100
AcDbText
 10
328.204
 20
39.802
 30
0.0
 40
4.0
  1

  7
0
 72
     1
 11
328.204
 21
39.802
 31
0.0
100
AcDbText
  0
TEXT
  5
89
330
1E
100
AcDbEntity
  8
MO
100
AcDbText
 10
82.20200000000009
 20
51.07199999999998
 30
0.0
 40
3.0
  1

  7
0
100
AcDbText
  0
TEXT
  5
8B
330
1E
100
AcDbEntity
  8
MO
100
AcDbText
 10
110.859
 20
51.07199999999998
 30
0.0
 40
3.0
  1

  7
0
100
AcDbText
  0
TEXT
  5
8D
330
1E
100
AcDbEntity
  8
MO
100
AcDbText
 10
360.261
 20
19.91099999999999
 30
0.0
 40
7.0
  1

  7
0
 72
     4
 11
360.261
 21
19.91099999999999
 31
0.0
100
AcDbText
  0
TEXT
  5
91
330
1E
100
AcDbEntity
  8
MO
370
    40
100
AcDbText
 10
216.5733260705749
 20
246.8484085017089
 30
0.0
 40
10.8
  1
リード型プレートヒーター
  7
0
100
AcDbText
  0
TEXT
  5
AC
330
1E
100
AcDbEntity
  8
MO
100
AcDbText
 10
103.1910000000001
 20
51.07199999999996
 30
0.0
 40
3.0
  1

  7
0
100
AcDbText
  0
TEXT
  5
1399
330
1E
100
AcDbEntity
  8
MO
100
AcDbText
 10
75.70200000000008
 20
51.07199999999998
 30
0.0
 40
3.0
  1

  7
0
100
AcDbText
  0
TEXT
  5
139C
330
1E
100
AcDbEntity
  8
MO
100
AcDbText
 10
110.859
 20
63.07199999999996
 30
0.0
 40
3.0
  1

  7
0
100
AcDbText
  0
TEXT
  5
139F
330
1E
100
AcDbEntity
  8
SC
100
AcDbText
 10
135.033
 20
64.98099999999995
 30
0.0
 40
2.0
  1

  7
0
100
AcDbText
  0
TEXT
  5
13A0
330
1E
100
AcDbEntity
  8
MO
100
AcDbText
 10
110.859
 20
45.07200000000001
 30
0.0
 40
3.0
  1

  7
0
100
AcDbText
  0
TEXT
  5
148E
330
1E
100
AcDbEntity
  8
MO
100
AcDbText
 10
355.9181320877766
 20
10.917
 30
0.0
 40
5.0
  1
株）
  7
0
 72
     1
 11
359.9181320877766
 21
10.917
 31
0.0
100
AcDbText
  0
TEXT
  5
1491
330
1E
100
AcDbEntity
  8
SC
100
AcDbText
 10
103.7564
 20
117.6597333333333
 30
0.0
 40
0.25
  1

100
AcDbText
  0
TEXT
  5
1492
330
1E
100
AcDbEntity
  8
MO
100
AcDbText
 10
367.191
 20
10.917
 30
0.0
 40
6.0
  1
愛西電熱
  7
0
 72
     1
 11
380.7910000000001
 21
10.917
 31
0.0
100
AcDbText
  0
MTEXT
  5
1758
330
1E
100
AcDbEntity
  8
SC
100
AcDbMText
 10
317.637
 20
21.871
 30
0.0
 40
2.5
 41
0.0
 71
     1
 72
     5
  1

  7
0
 73
     1
 44
1.0
1001
ACAD
1000
MTEXTBEGIN
1070
    73
1070
     1
1070
    44
1040
1.0
1070
    74
1070
     0
1000
MTEXTEND
  0
MTEXT
  5
178F
330
1E
100
AcDbEntity
  8
SC
100
AcDbMText
 10
220.1774508739589
 20
61.30926792682226
 30
0.0
 40
5.0
 41
0.0
 71
     1
 72
     5
  1
加工穴、その他変更部がありましたら図面に書き込んで御利用下さい
  7
0
 73
     1
 44
1.0
1001
ACAD
1000
MTEXTBEGIN
1070
    73
1070
     1
1070
    44
1040
1.0
1070
    74
1070
     0
1000
MTEXTEND
  0
LINE
  5
17DC
330
1E
100
AcDbEntity
  8
0
100
AcDbLine
 10
14.99999999999995
 20
30.70499999999999
 30
0.0
 11
14.99999999999995
 21
50.70499999999999
 31
0.0
  0
LINE
  5
17DE
330
1E
100
AcDbEntity
  8
0
100
AcDbLine
 10
24.99999999999994
 20
50.70499999999999
 30
0.0
 11
24.99999999999994
 21
30.705
 31
0.0
  0
LINE
  5
1806
330
1E
100
AcDbEntity
  8
0
100
AcDbLine
 10
14.99999999999995
 20
50.70499999999999
 30
0.0
 11
49.99999999999994
 21
50.70499999999999
 31
0.0
  0
LINE
  5
1807
330
1E
100
AcDbEntity
  8
0
100
AcDbLine
 10
14.99999999999995
 20
40.70499999999999
 30
0.0
 11
49.99999999999994
 21
40.70499999999999
 31
0.0
  0
LINE
  5
1808
330
1E
100
AcDbEntity
  8
0
100
AcDbLine
 10
14.99999999999995
 20
30.70499999999999
 30
0.0
 11
49.99999999999994
 21
30.70499999999999
 31
0.0
  0
LINE
  5
180A
330
1E
100
AcDbEntity
  8
0
100
AcDbLine
 10
159.9999999999999
 20
50.70499999999999
 30
0.0
 11
281.0
 21
50.70499999999999
 31
0.0
  0
TEXT
  5
1814
330
1E
100
AcDbEntity
  8
MO
100
AcDbText
 10
19.18000058282744
 20
43.87999982484505
 30
0.0
 40
3.499999999999999
  1
A
  7
0
100
AcDbText
  0
TEXT
  5
181A
330
1E
100
AcDbEntity
  8
MO
100
AcDbText
 10
91.28012879570206
 20
43.7553613470516
 30
0.0
 40
3.499999999999999
  1
B
  7
0
100
AcDbText
  0
TEXT
  5
1822
330
1E
100
AcDbEntity
  8
MO
100
AcDbText
 10
32.58085048309867
 20
43.07893657328403
 30
0.0
 40
4.375
  1
全長
  7
0
 72
     1
 11
37.24751714976533
 21
43.07893657328403
 31
0.0
100
AcDbText
  0
TEXT
  5
1829
330
1E
100
AcDbEntity
  8
MO
100
AcDbText
 10
107.5739879080579
 20
43.61824969380626
 30
0.0
 40
4.375
  1
巾
  7
0
 72
     1
 11
109.6156545747246
 21
43.61824969380626
 31
0.0
100
AcDbText
  0
TEXT
  5
1844
330
1E
100
AcDbEntity
  8
MO
100
AcDbText
 10
18.85312879570205
 20
33.67336134705161
 30
0.0
 40
3.499999999999999
  1
C
  7
0
100
AcDbText
  0
TEXT
  5
1845
330
1E
100
AcDbEntity
  8
MO
100
AcDbText
 10
32.40350193661301
 20
33.50686474409736
 30
0.0
 40
4.375
  1
厚み
  7
0
 72
     1
 11
36.92433526994634
 21
33.50686474409736
 31
0.0
100
AcDbText
  0
LINE
  5
1847
330
1E
100
AcDbEntity
  8
0
100
AcDbLine
 10
49.99999999999994
 20
50.70499999999999
 30
0.0
 11
49.99999999999994
 21
30.70499999999999
 31
0.0
  0
TEXT
  5
1855
330
1E
100
AcDbEntity
  8
MO
100
AcDbText
 10
91.35312879570202
 20
33.6733613470516
 30
0.0
 40
3.499999999999999
  1
D
  7
0
100
AcDbText
  0
TEXT
  5
1856
330
1E
100
AcDbEntity
  8
MO
100
AcDbText
 10
226.088412769654
 20
33.66682550160349
 30
0.0
 40
4.375
  1
数量
  7
0
 72
     1
 11
230.7550794363206
 21
33.66682550160349
 31
0.0
100
AcDbText
  0
LINE
  5
1870
330
1E
100
AcDbEntity
  8
0
100
AcDbLine
 10
14.99999999999994
 20
30.705
 30
0.0
 11
159.9999999999999
 21
30.70499999999999
 31
0.0
  0
LINE
  5
1871
330
1E
100
AcDbEntity
  8
0
100
AcDbLine
 10
87.49999999999992
 20
50.70499999999999
 30
0.0
 11
87.49999999999992
 21
30.70499999999999
 31
0.0
  0
LINE
  5
1873
330
1E
100
AcDbEntity
  8
0
100
AcDbLine
 10
49.99999999999994
 20
50.70499999999999
 30
0.0
 11
159.9999999999999
 21
50.70499999999999
 31
0.0
  0
LINE
  5
1874
330
1E
100
AcDbEntity
  8
0
100
AcDbLine
 10
49.99999999999994
 20
40.70499999999999
 30
0.0
 11
87.49999999999992
 21
40.70499999999999
 31
0.0
  0
LINE
  5
1875
330
1E
100
AcDbEntity
  8
0
100
AcDbLine
 10
49.99999999999994
 20
30.70499999999999
 30
0.0
 11
159.9999999999999
 21
30.70499999999999
 31
0.0
  0
LINE
  5
1884
330
1E
100
AcDbEntity
  8
0
100
AcDbLine
 10
122.4999999999999
 20
40.705
 30
0.0
 11
159.9999999999999
 21
40.705
 31
0.0
  0
LINE
  5
1888
330
1E
100
AcDbEntity
  8
0
100
AcDbLine
 10
14.99999999999994
 20
30.705
 30
0.0
 11
159.9999999999999
 21
30.70499999999999
 31
0.0
  0
LINE
  5
1889
330
1E
100
AcDbEntity
  8
0
100
AcDbLine
 10
17.99999999999994
 20
20.705
 30
0.0
 11
283.2259999999999
 21
20.70499999999999
 31
0.0
  0
LINE
  5
188A
330
1E
100
AcDbEntity
  8
0
100
AcDbLine
 10
17.99999999999994
 20
10.705
 30
0.0
 11
283.2259999999999
 21
10.70499999999998
 31
0.0
  0
TEXT
  5
1892
330
1E
100
AcDbEntity
  8
MO
100
AcDbText
 10
18.0825030365616
 20
28.37468907764135
 30
0.0
 40
2.799999999999999
  1

  7
0
100
AcDbText
  0
TEXT
  5
1893
330
1E
100
AcDbEntity
  8
MO
100
AcDbText
 10
18.31122710757998
 20
21.78303665633006
 30
0.0
 40
3.5
  1
その他詳細：
  7
0
 72
     1
 11
29.86122710757998
 21
21.78303665633006
 31
0.0
100
AcDbText
  0
LINE
  5
18A2
330
1E
100
AcDbEntity
  8
0
100
AcDbLine
 10
87.49999999999992
 20
40.70499999999999
 30
0.0
 11
159.9999999999999
 21
40.70499999999999
 31
0.0
  0
TEXT
  5
18A3
330
1E
100
AcDbEntity
  8
MO
100
AcDbText
 10
226.322471877816
 20
43.55161148403567
 30
0.0
 40
4.375
  1
容量
  7
0
 72
     1
 11
230.9891385444827
 21
43.55161148403567
 31
0.0
100
AcDbText
  0
TEXT
  5
18A5
330
1E
100
AcDbEntity
  8
MO
100
AcDbText
 10
166.1966333931626
 20
43.47752605931685
 30
0.0
 40
4.375
  1
電圧
  7
0
 72
     1
 11
170.8633000598292
 21
43.47752605931685
 31
0.0
100
AcDbText
  0
LINE
  5
18A9
330
1E
100
AcDbEntity
  8
0
100
AcDbLine
 10
159.9999999999999
 20
50.70499999999999
 30
0.0
 11
159.9999999999999
 21
30.70499999999999
 31
0.0
  0
LINE
  5
18AA
330
1E
100
AcDbEntity
  8
0
100
AcDbLine
 10
97.49999999999994
 20
50.70499999999999
 30
0.0
 11
97.49999999999994
 21
30.70499999999999
 31
0.0
  0
LINE
  5
18AB
330
1E
100
AcDbEntity
  8
0
100
AcDbLine
 10
122.4999999999999
 20
50.70499999999999
 30
0.0
 11
122.4999999999999
 21
30.70499999999999
 31
0.0
  0
TEXT
  5
18B4
330
1E
100
AcDbEntity
  8
MO
100
AcDbText
 10
334.7498393399925
 20
3.380574230302642
 30
0.0
 40
3.5
  1
AISEI  DENNETSU CO., LTD
  7
0
100
AcDbText
  0
TEXT
  5
18BD
330
1E
100
AcDbEntity
  8
MO
100
AcDbText
 10
398.0943211714158
 20
11.06163477656134
 30
0.0
 40
5.0
  1
行
  7
0
 72
     1
 11
400.4276545047491
 21
11.06163477656134
 31
0.0
100
AcDbText
  0
TEXT
  5
18CC
330
1E
100
AcDbEntity
  8
MO
100
AcDbText
 10
150.7363375097419
 20
42.75375974362895
 30
0.0
 40
3.0625
  1
mm
  7
0
 72
     1
 11
154.5280041764086
 21
42.75375974362895
 31
0.0
100
AcDbText
  0
TEXT
  5
18D2
330
1E
100
AcDbEntity
  8
MO
100
AcDbText
 10
212.9983333333334
 20
42.769
 30
0.0
 40
4.375
  1
V
  7
0
 72
     1
 11
214.665
 21
42.769
 31
0.0
100
AcDbText
  0
TEXT
  5
18D8
330
1E
100
AcDbEntity
  8
MO
100
AcDbText
 10
273.9431655087571
 20
43.26163213625631
 30
0.0
 40
4.375
  1
W
  7
0
 72
     1
 11
276.0264988420904
 21
43.26163213625631
 31
0.0
100
AcDbText
  0
TEXT
  5
18DE
330
1E
100
AcDbEntity
  8
MO
100
AcDbText
 10
274.4442622448694
 20
33.87254434300947
 30
0.0
 40
4.375
  1
枚
  7
0
 72
     1
 11
276.485928911536
 21
33.87254434300947
 31
0.0
100
AcDbText
  0
TEXT
  5
18EB
330
1E
100
AcDbEntity
  8
MO
100
AcDbText
 10
17.62914196000259
 20
55.01909017515878
 30
0.0
 40
4.550000000000001
  1
※　下記空欄に記入し、FAXしてください
  7
0
100
AcDbText
  0
LINE
  5
18ED
330
1E
100
AcDbEntity
  8
0
100
AcDbLine
 10
3.193615971125439
 20
267.713
 30
0.0
 11
128.2526159711254
 21
267.713
 31
0.0
  0
LINE
  5
18EE
330
1E
100
AcDbEntity
  8
0
100
AcDbLine
 10
3.193615971125439
 20
255.713
 30
0.0
 11
128.2526159711254
 21
255.7129999999999
 31
0.0
  0
LINE
  5
18EF
330
1E
100
AcDbEntity
  8
0
100
AcDbLine
 10
3.193615971125424
 20
243.713
 30
0.0
 11
128.2526159711254
 21
243.7129999999999
 31
0.0
  0
LINE
  5
18F0
330
1E
100
AcDbEntity
  8
0
100
AcDbLine
 10
3.193615971125424
 20
231.713
 30
0.0
 11
128.2526159711254
 21
231.7129999999999
 31
0.0
  0
TEXT
  5
18F7
330
1E
100
AcDbEntity
  8
MO
100
AcDbText
 10
5.047000000000002
 20
269.7195108252091
 30
0.0
 40
4.375
  1
貴社名：
  7
0
 72
     1
 11
14.08866666666667
 21
269.7195108252091
 31
0.0
100
AcDbText
  0
TEXT
  5
18FF
330
1E
100
AcDbEntity
  8
MO
100
AcDbText
 10
4.762445293775542
 20
259.6404968976157
 30
0.0
 40
4.375
  1
部署・担当者名：
  7
0
 72
     1
 11
24.30411196044222
 21
259.6404968976157
 31
0.0
100
AcDbText
  0
TEXT
  5
190B
330
1E
100
AcDbEntity
  8
MO
100
AcDbText
 10
4.244409610399635
 20
235.1743512486338
 30
0.0
 40
4.375
  1
御連絡先 FAX：
  7
0
 72
     1
 11
23.4735762770663
 21
235.1743512486338
 31
0.0
100
AcDbText
  0
TEXT
  5
1918
330
1E
100
AcDbEntity
  8
MO
100
AcDbText
 10
4.271947869785471
 20
247.7453335828736
 30
0.0
 40
4.375
  1
御連絡先 TEL：
  7
0
 72
     1
 11
22.87611453645213
 21
247.7453335828736
 31
0.0
100
AcDbText
  0
LINE
  5
1923
330
1E
100
AcDbEntity
  8
0
370
    40
100
AcDbLine
 10
315.0881625155811
 20
37.35735115744029
 30
0.0
 11
393.0881625155811
 21
37.35735115744029
 31
0.0
  0
LINE
  5
1924
330
1E
100
AcDbEntity
  8
0
370
    40
100
AcDbLine
 10
315.0881625155811
 20
34.7573511574403
 30
0.0
 11
399.5881625155811
 21
34.7573511574403
 31
0.0
  0
LINE
  5
1925
330
1E
100
AcDbEntity
  8
0
370
    40
100
AcDbLine
 10
393.0881625155811
 20
37.35735115744029
 30
0.0
 11
393.0881625155811
 21
39.95735115744029
 31
0.0
  0
LINE
  5
1926
330
1E
100
AcDbEntity
  8
0
370
    40
100
AcDbLine
 10
393.0881625155811
 20
39.95735115744029
 30
0.0
 11
399.5881625155811
 21
34.7573511574403
 31
0.0
  0
LINE
  5
1927
330
1E
100
AcDbEntity
  8
0
370
    40
100
AcDbLine
 10
315.0881625155811
 20
37.35735115744029
 30
0.0
 11
315.0881625155811
 21
34.7573511574403
 31
0.0
  0
TEXT
  5
192E
330
1E
100
AcDbEntity
  8
MO
370
    40
100
AcDbText
 10
324.6798300677355
 20
38.84484239326316
 30
0.0
 40
7.800000000000001
  1
FAX送信方向
  7
0
 72
     1
 11
353.2426872105926
 21
38.84484239326316
 31
0.0
100
AcDbText
  0
TEXT
  5
1943
330
1E
100
AcDbEntity
  8
0
370
    53
100
AcDbText
 10
86.07465571428523
 20
284.1842971226886
 30
0.0
 40
10.0
  1
愛西電熱　見積依頼書・注文書　フォーム
  7
0
100
AcDbText
  0
TEXT
  5
195E
330
1E
100
AcDbEntity
  8
MO
370
    40
100
AcDbText
 10
313.1463329590498
 20
24.83965109775832
 30
0.0
 40
7.800000000000001
  1
0568-25-2241
  7
0
 72
     1
 11
357.1606186733355
 21
24.83965109775832
 31
0.0
100
AcDbText
  0
LINE
  5
19C2
330
1E
100
AcDbEntity
  8
SC
370
    40
100
AcDbLine
 10
214.363
 20
245.664
 30
0.0
 11
373.466
 21
245.664
 31
0.0
  0
LINE
  5
19F9
330
1E
100
AcDbEntity
  8
0
100
AcDbLine
 10
160.9999999999999
 20
50.70499999999999
 30
0.0
 11
160.9999999999999
 21
30.70499999999999
 31
0.0
  0
LINE
  5
1A00
330
1E
100
AcDbEntity
  8
0
100
AcDbLine
 10
159.9999999999999
 20
40.705
 30
0.0
 11
280.9999999999999
 21
40.70499999999983
 31
0.0
  0
LINE
  5
1A06
330
1E
100
AcDbEntity
  8
0
100
AcDbLine
 10
159.9999999999999
 20
30.70499999999999
 30
0.0
 11
280.9999999999999
 21
30.70499999999997
 31
0.0
  0
LINE
  5
1A08
330
1E
100
AcDbEntity
  8
0
100
AcDbLine
 10
180.9999999999999
 20
50.70499999999999
 30
0.0
 11
180.9999999999999
 21
30.70499999999999
 31
0.0
  0
LINE
  5
1A09
330
1E
100
AcDbEntity
  8
0
100
AcDbLine
 10
220.9999999999999
 20
50.70499999999999
 30
0.0
 11
220.9999999999999
 21
30.70499999999998
 31
0.0
  0
LINE
  5
1A12
330
1E
100
AcDbEntity
  8
0
100
AcDbLine
 10
281.0
 20
50.70499999999999
 30
0.0
 11
280.9999999999999
 21
30.70499999999997
 31
0.0
  0
LINE
  5
1A13
330
1E
100
AcDbEntity
  8
0
100
AcDbLine
 10
241.0
 20
50.70499999999999
 30
0.0
 11
241.0
 21
30.70499999999999
 31
0.0
  0
LINE
  5
1A14
330
1E
100
AcDbEntity
  8
0
100
AcDbLine
 10
220.9999999999999
 20
50.70499999999999
 30
0.0
 11
220.9999999999999
 21
30.70499999999999
 31
0.0
  0
TEXT
  5
1C07
330
1E
100
AcDbEntity
  8
MO
100
AcDbText
 10
99.26148790805797
 20
33.61824969380628
 30
0.0
 40
4.375
  1
リード長
  7
0
 72
     1
 11
109.6156545747246
 21
33.61824969380628
 31
0.0
100
AcDbText
  0
TEXT
  5
1C08
330
1E
100
AcDbEntity
  8
MO
100
AcDbText
 10
150.7363375097419
 20
32.75375974362896
 30
0.0
 40
3.0625
  1
mm
  7
0
 72
     1
 11
154.5280041764086
 21
32.75375974362896
 31
0.0
100
AcDbText
  0
LINE
  5
1CC3
330
1E
100
AcDbEntity
  8
HO
100
AcDbLine
 10
81.34100000000001
 20
161.7000002906763
 30
0.0
 11
266.3410000000002
 21
161.7000002906762
 31
0.0
  0
LINE
  5
1CC6
330
1E
100
AcDbEntity
  8
SA
100
AcDbLine
 10
88.84100000000001
 20
186.7000002906763
 30
0.0
 11
258.841
 21
186.7000002906762
 31
0.0
  0
LINE
  5
1CC7
330
1E
100
AcDbEntity
  8
SA
100
AcDbLine
 10
88.84100000000001
 20
136.7000002906763
 30
0.0
 11
258.841
 21
136.7000002906762
 31
0.0
  0
LINE
  5
1CC8
330
1E
100
AcDbEntity
  8
SA
100
AcDbLine
 10
88.84100000000001
 20
186.7000002906763
 30
0.0
 11
88.84100000000001
 21
136.7000002906763
 31
0.0
  0
LINE
  5
1CC9
330
1E
100
AcDbEntity
  8
SA
100
AcDbLine
 10
258.841
 20
186.7000002906762
 30
0.0
 11
258.841
 21
136.7000002906762
 31
0.0
  0
LINE
  5
1CCA
330
1E
100
AcDbEntity
  8
SA
100
AcDbLine
 10
92.841
 20
182.7000002906763
 30
0.0
 11
254.841
 21
182.7000002906762
 31
0.0
  0
LINE
  5
1CCB
330
1E
100
AcDbEntity
  8
SA
100
AcDbLine
 10
92.841
 20
182.7000002906763
 30
0.0
 11
92.841
 21
140.7000002906763
 31
0.0
  0
LINE
  5
1CCC
330
1E
100
AcDbEntity
  8
SA
100
AcDbLine
 10
92.841
 20
140.7000002906763
 30
0.0
 11
254.8410000000002
 21
140.7000002906762
 31
0.0
  0
LINE
  5
1CCD
330
1E
100
AcDbEntity
  8
SA
100
AcDbLine
 10
254.8410000000002
 20
182.7000002906763
 30
0.0
 11
254.841
 21
140.7000002906763
 31
0.0
  0
LINE
  5
1CCE
330
1E
100
AcDbEntity
  8
SA
100
AcDbLine
 10
88.84100000000001
 20
186.7000002906763
 30
0.0
 11
92.841
 21
182.7000002906763
 31
0.0
  0
LINE
  5
1CCF
330
1E
100
AcDbEntity
  8
SA
100
AcDbLine
 10
92.841
 20
140.7000002906763
 30
0.0
 11
88.84100000000001
 21
136.7000002906763
 31
0.0
  0
LINE
  5
1CD0
330
1E
100
AcDbEntity
  8
SA
100
AcDbLine
 10
258.841
 20
186.7000002906763
 30
0.0
 11
254.841
 21
182.7000002906763
 31
0.0
  0
LINE
  5
1CD1
330
1E
100
AcDbEntity
  8
SA
100
AcDbLine
 10
254.841
 20
140.7000002906763
 30
0.0
 11
258.841
 21
136.7000002906763
 31
0.0
  0
LINE
  5
1CD2
330
1E
100
AcDbEntity
  8
SA
100
AcDbLine
 10
88.84100000000001
 20
136.7000002906763
 30
0.0
 11
92.841
 21
140.7000002906763
 31
0.0
  0
LINE
  5
1CD3
330
1E
100
AcDbEntity
  8
SA
100
AcDbLine
 10
88.84099999999994
 20
86.70000029067628
 30
0.0
 11
258.841
 21
86.70000029067626
 31
0.0
  0
LINE
  5
1CD4
330
1E
100
AcDbEntity
  8
SA
100
AcDbLine
 10
88.84099999999994
 20
91.20000029067631
 30
0.0
 11
258.841
 21
91.20000029067625
 31
0.0
  0
LINE
  5
1CD5
330
1E
100
AcDbEntity
  8
SA
100
AcDbLine
 10
88.84099999999994
 20
91.20000029067631
 30
0.0
 11
88.84099999999994
 21
86.70000029067631
 31
0.0
  0
LINE
  5
1CD6
330
1E
100
AcDbEntity
  8
SA
100
AcDbLine
 10
258.841
 20
91.20000029067625
 30
0.0
 11
258.841
 21
86.70000029067626
 31
0.0
  0
LINE
  5
1CD9
330
1E
100
AcDbEntity
  8
SC
100
AcDbLine
 10
87.84099999999995
 20
91.20000029067631
 30
0.0
 11
74.341
 21
91.20000029067631
 31
0.0
  0
LINE
  5
1CDA
330
1E
100
AcDbEntity
  8
SC
100
AcDbLine
 10
87.84099999999995
 20
86.70000029067631
 30
0.0
 11
74.341
 21
86.70000029067635
 31
0.0
  0
LINE
  5
1CDB
330
1E
100
AcDbEntity
  8
SC
100
AcDbLine
 10
76.341
 20
93.70000029067631
 30
0.0
 11
76.341
 21
111.255
 31
0.0
  0
LINE
  5
1CDC
330
1E
100
AcDbEntity
  8
SC
100
AcDbLine
 10
76.341
 20
84.20000029067635
 30
0.0
 11
76.341
 21
81.70000029067635
 31
0.0
  0
LINE
  5
1CDD
330
1E
100
AcDbEntity
  8
SC
100
AcDbLine
 10
76.341
 20
91.20000029067631
 30
0.0
 11
76.341
 21
86.70000029067635
 31
0.0
  0
SOLID
  5
1CDE
330
1E
100
AcDbEntity
  8
SC
100
AcDbTrace
 10
75.92433333333332
 20
93.70000029067631
 30
0.0
 11
76.75766666666664
 21
93.70000029067631
 31
0.0
 12
76.341
 22
91.20000029067631
 32
0.0
 13
76.341
 23
91.20000029067631
 33
0.0
  0
SOLID
  5
1CDF
330
1E
100
AcDbEntity
  8
SC
100
AcDbTrace
 10
75.92433333333332
 20
84.20000029067635
 30
0.0
 11
76.75766666666664
 21
84.20000029067635
 31
0.0
 12
76.341
 22
86.70000029067635
 32
0.0
 13
76.341
 23
86.70000029067635
 33
0.0
  0
LINE
  5
1CE0
330
1E
100
AcDbEntity
  8
SC
100
AcDbLine
 10
87.841
 20
186.7000002906762
 30
0.0
 11
74.341
 21
186.7000002906762
 31
0.0
  0
LINE
  5
1CE1
330
1E
100
AcDbEntity
  8
SC
100
AcDbLine
 10
87.841
 20
136.7000002906763
 30
0.0
 11
74.341
 21
136.7000002906763
 31
0.0
  0
LINE
  5
1CE2
330
1E
100
AcDbEntity
  8
SC
100
AcDbLine
 10
76.341
 20
184.2000002906763
 30
0.0
 11
76.341
 21
139.2000002906763
 31
0.0
  0
SOLID
  5
1CE3
330
1E
100
AcDbEntity
  8
SC
100
AcDbTrace
 10
75.92433333333332
 20
184.2000002906763
 30
0.0
 11
76.75766666666669
 21
184.2000002906763
 31
0.0
 12
76.341
 22
186.7000002906762
 32
0.0
 13
76.341
 23
186.7000002906762
 33
0.0
  0
SOLID
  5
1CE4
330
1E
100
AcDbEntity
  8
SC
100
AcDbTrace
 10
75.92433333333332
 20
139.2000002906763
 30
0.0
 11
76.75766666666669
 21
139.2000002906763
 31
0.0
 12
76.341
 22
136.7000002906763
 32
0.0
 13
76.341
 23
136.7000002906763
 33
0.0
  0
LINE
  5
1CE7
330
1E
100
AcDbEntity
  8
HO
100
AcDbLine
 10
249.8410000000002
 20
169.2000002906763
 30
0.0
 11
351.3409999999999
 21
169.2000002906762
 31
0.0
  0
LINE
  5
1CE8
330
1E
100
AcDbEntity
  8
SB
100
AcDbLine
 10
288.841
 20
170.7000002906762
 30
0.0
 11
288.841
 21
167.7000002906762
 31
0.0
  0
LINE
  5
1CE9
330
1E
100
AcDbEntity
  8
SB
100
AcDbLine
 10
338.8409999999999
 20
170.2000002906762
 30
0.0
 11
338.8409999999999
 21
168.2000002906762
 31
0.0
  0
LINE
  5
1CEA
330
1E
100
AcDbEntity
  8
SB
100
AcDbLine
 10
346.341
 20
169.7000002906762
 30
0.0
 11
346.341
 21
168.7000002906762
 31
0.0
  0
LINE
  5
1CEB
330
1E
100
AcDbEntity
  8
SB
100
AcDbLine
 10
258.841
 20
170.7000002906762
 30
0.0
 11
288.841
 21
170.7000002906762
 31
0.0
  0
LINE
  5
1CEC
330
1E
100
AcDbEntity
  8
SB
100
AcDbLine
 10
258.841
 20
167.7000002906762
 30
0.0
 11
288.841
 21
167.7000002906762
 31
0.0
  0
LINE
  5
1CED
330
1E
100
AcDbEntity
  8
SB
100
AcDbLine
 10
288.841
 20
168.2000002906762
 30
0.0
 11
338.8409999999999
 21
168.2000002906762
 31
0.0
  0
LINE
  5
1CEE
330
1E
100
AcDbEntity
  8
SB
100
AcDbLine
 10
288.841
 20
170.2000002906762
 30
0.0
 11
338.8409999999999
 21
170.2000002906762
 31
0.0
  0
LINE
  5
1CEF
330
1E
100
AcDbEntity
  8
SB
100
AcDbLine
 10
338.8409999999999
 20
168.7000002906762
 30
0.0
 11
346.341
 21
168.7000002906762
 31
0.0
  0
LINE
  5
1CF0
330
1E
100
AcDbEntity
  8
SB
100
AcDbLine
 10
338.8409999999999
 20
169.7000002906762
 30
0.0
 11
346.341
 21
169.7000002906762
 31
0.0
  0
LINE
  5
1CF1
330
1E
100
AcDbEntity
  8
HO
100
AcDbLine
 10
249.8409999999999
 20
154.2000002906765
 30
0.0
 11
351.3409999999997
 21
154.2000002906745
 31
0.0
  0
LINE
  5
1CF2
330
1E
100
AcDbEntity
  8
SB
100
AcDbLine
 10
288.841
 20
153.2000002906758
 30
0.0
 11
338.8409999999999
 21
153.2000002906748
 31
0.0
  0
LINE
  5
1CF3
330
1E
100
AcDbEntity
  8
SB
100
AcDbLine
 10
288.841
 20
155.2000002906758
 30
0.0
 11
338.8409999999999
 21
155.2000002906748
 31
0.0
  0
LINE
  5
1CF4
330
1E
100
AcDbEntity
  8
SB
100
AcDbLine
 10
258.841
 20
155.7000002906763
 30
0.0
 11
288.841
 21
155.7000002906758
 31
0.0
  0
LINE
  5
1CF5
330
1E
100
AcDbEntity
  8
SB
100
AcDbLine
 10
258.8409999999997
 20
152.7000002906764
 30
0.0
 11
288.841
 21
152.7000002906758
 31
0.0
  0
LINE
  5
1CF6
330
1E
100
AcDbEntity
  8
SB
100
AcDbLine
 10
288.841
 20
152.7000002906758
 30
0.0
 11
288.841
 21
155.7000002906757
 31
0.0
  0
LINE
  5
1CF7
330
1E
100
AcDbEntity
  8
SB
100
AcDbLine
 10
338.8409999999999
 20
153.7000002906748
 30
0.0
 11
346.3409999999997
 21
153.7000002906746
 31
0.0
  0
LINE
  5
1CF8
330
1E
100
AcDbEntity
  8
SB
100
AcDbLine
 10
338.8409999999997
 20
154.7000002906748
 30
0.0
 11
346.3409999999997
 21
154.7000002906746
 31
0.0
  0
LINE
  5
1CF9
330
1E
100
AcDbEntity
  8
SB
100
AcDbLine
 10
338.8409999999999
 20
153.2000002906748
 30
0.0
 11
338.8409999999999
 21
155.2000002906748
 31
0.0
  0
LINE
  5
1CFA
330
1E
100
AcDbEntity
  8
SB
100
AcDbLine
 10
346.3409999999997
 20
153.7000002906746
 30
0.0
 11
346.3409999999997
 21
154.7000002906746
 31
0.0
  0
LINE
  5
1CFB
330
1E
100
AcDbEntity
  8
SB
100
AcDbLine
 10
338.8409999999999
 20
87.95000029067651
 30
0.0
 11
338.8409999999999
 21
89.95000029067645
 31
0.0
  0
LINE
  5
1CFC
330
1E
100
AcDbEntity
  8
SB
100
AcDbLine
 10
338.8409999999997
 20
89.45000029067651
 30
0.0
 11
346.3409999999997
 21
89.45000029067633
 31
0.0
  0
LINE
  5
1CFD
330
1E
100
AcDbEntity
  8
SB
100
AcDbLine
 10
338.8409999999999
 20
88.45000029067653
 30
0.0
 11
346.3409999999997
 21
88.45000029067637
 31
0.0
  0
LINE
  5
1CFE
330
1E
100
AcDbEntity
  8
SB
100
AcDbLine
 10
346.3409999999997
 20
88.45000029067637
 30
0.0
 11
346.3409999999997
 21
89.45000029067632
 31
0.0
  0
LINE
  5
1CFF
330
1E
100
AcDbEntity
  8
SB
100
AcDbLine
 10
288.841
 20
89.95000029067748
 30
0.0
 11
338.8409999999999
 21
89.95000029067652
 31
0.0
  0
LINE
  5
1D00
330
1E
100
AcDbEntity
  8
SB
100
AcDbLine
 10
288.841
 20
87.95000029067749
 30
0.0
 11
338.8409999999999
 21
87.95000029067654
 31
0.0
  0
LINE
  5
1D01
330
1E
100
AcDbEntity
  8
HO
100
AcDbLine
 10
249.8409999999999
 20
88.95000029067819
 30
0.0
 11
351.3409999999997
 21
88.95000029067626
 31
0.0
  0
LINE
  5
1D02
330
1E
100
AcDbEntity
  8
SB
100
AcDbLine
 10
288.841
 20
87.45000029067748
 30
0.0
 11
288.841
 21
90.45000029067745
 31
0.0
  0
LINE
  5
1D03
330
1E
100
AcDbEntity
  8
SB
100
AcDbLine
 10
258.8409999999997
 20
87.45000029067808
 30
0.0
 11
288.841
 21
87.45000029067748
 31
0.0
  0
LINE
  5
1D04
330
1E
100
AcDbEntity
  8
SB
100
AcDbLine
 10
258.841
 20
90.45000029067807
 30
0.0
 11
288.841
 21
90.45000029067749
 31
0.0
  0
LINE
  5
1D09
330
1E
100
AcDbEntity
  8
SC
100
AcDbLine
 10
258.841
 20
186.7000002906762
 30
0.0
 11
258.841
 21
208.2000002906763
 31
0.0
  0
LINE
  5
1D0A
330
1E
100
AcDbEntity
  8
SC
100
AcDbLine
 10
346.341
 20
170.7000002906762
 30
0.0
 11
346.341
 21
208.2000002906763
 31
0.0
  0
LINE
  5
1D0B
330
1E
100
AcDbEntity
  8
SC
100
AcDbLine
 10
261.341
 20
206.2000002906763
 30
0.0
 11
343.841
 21
206.2000002906763
 31
0.0
  0
SOLID
  5
1D0C
330
1E
100
AcDbEntity
  8
SC
100
AcDbTrace
 10
261.341
 20
206.6166669573429
 30
0.0
 11
261.341
 21
205.7833336240096
 31
0.0
 12
258.841
 22
206.2000002906763
 32
0.0
 13
258.841
 23
206.2000002906763
 33
0.0
  0
SOLID
  5
1D0D
330
1E
100
AcDbEntity
  8
SC
100
AcDbTrace
 10
343.841
 20
206.6166669573429
 30
0.0
 11
343.841
 21
205.7833336240096
 31
0.0
 12
346.341
 22
206.2000002906763
 32
0.0
 13
346.341
 23
206.2000002906763
 33
0.0
  0
LINE
  5
1D0E
330
1E
100
AcDbEntity
  8
SC
100
AcDbLine
 10
88.84100000000001
 20
187.7000002906763
 30
0.0
 11
88.84100000000001
 21
208.2000002906763
 31
0.0
  0
LINE
  5
1D0F
330
1E
100
AcDbEntity
  8
SC
100
AcDbLine
 10
258.841
 20
202.2000002906763
 30
0.0
 11
258.841
 21
208.2000002906763
 31
0.0
  0
LINE
  5
1D10
330
1E
100
AcDbEntity
  8
SC
100
AcDbLine
 10
91.34100000000001
 20
206.2000002906763
 30
0.0
 11
256.341
 21
206.2000002906763
 31
0.0
  0
SOLID
  5
1D11
330
1E
100
AcDbEntity
  8
SC
100
AcDbTrace
 10
91.34100000000001
 20
206.6166669573429
 30
0.0
 11
91.34100000000001
 21
205.7833336240096
 31
0.0
 12
88.84100000000001
 22
206.2000002906763
 32
0.0
 13
88.84100000000001
 23
206.2000002906763
 33
0.0
  0
SOLID
  5
1D12
330
1E
100
AcDbEntity
  8
SC
100
AcDbTrace
 10
256.341
 20
206.6166669573429
 30
0.0
 11
256.341
 21
205.7833336240096
 31
0.0
 12
258.841
 22
206.2000002906763
 32
0.0
 13
258.841
 23
206.2000002906763
 33
0.0
  0
TEXT
  5
1D1C
330
1E
100
AcDbEntity
  8
MO
100
AcDbText
 10
78.23633750974194
 20
42.75375974362895
 30
0.0
 40
3.0625
  1
mm
  7
0
 72
     1
 11
82.02800417640862
 21
42.75375974362895
 31
0.0
100
AcDbText
  0
TEXT
  5
1D23
330
1E
100
AcDbEntity
  8
MO
100
AcDbText
 10
172.3349998566256
 20
207.2019251144973
 30
0.0
 40
6.0
  1
A
  7
0
100
AcDbText
  0
TEXT
  5
1D2A
330
1E
100
AcDbEntity
  8
MO
100
AcDbText
 10
74.2403001454348
 20
160.0369460561563
 30
0.0
 40
6.0
  1
B
 50
90.0
  7
0
100
AcDbText
  0
TEXT
  5
1D33
330
1E
100
AcDbEntity
  8
MO
100
AcDbText
 10
75.77599980867444
 20
102.0659999198503
 30
0.0
 40
6.0
  1
C
 50
90.0
  7
0
100
AcDbText
  0
TEXT
  5
1D3A
330
1E
100
AcDbEntity
  8
MO
100
AcDbText
 10
298.8405518531536
 20
206.9745901292054
 30
0.0
 40
6.0
  1
D
  7
0
100
AcDbText
  0
TEXT
  5
1D43
330
1E
100
AcDbEntity
  8
MO
100
AcDbText
 10
166.0717162065842
 20
33.50686474409734
 30
0.0
 40
4.375
  1
材質
  7
0
 72
     1
 11
170.7383828732508
 21
33.50686474409734
 31
0.0
100
AcDbText
  0
TEXT
  5
1D44
330
1E
100
AcDbEntity
  8
MO
100
AcDbText
 10
186.6550856006881
 20
33.91959994624482
 30
0.0
 40
3.5
  1
SUS・ボンデ鋼鈑
  7
0
 72
     1
 11
201.8550856006882
 21
33.91959994624482
 31
0.0
100
AcDbText
  0
LINE
  5
1D51
330
1E
100
AcDbEntity
  8
SC
100
AcDbLine
 10
108.6739996900843
 20
89.2139998433252
 30
0.0
 11
122.9083135453766
 21
109.6684876856872
 31
0.0
  0
LINE
  5
1D52
330
1E
100
AcDbEntity
  8
SC
100
AcDbLine
 10
122.9083135453766
 20
109.6684876856872
 30
0.0
 11
143.73
 21
109.6684876856872
 31
0.0
  0
TEXT
  5
1D53
330
1E
100
AcDbEntity
  8
MO
100
AcDbText
 10
125.2624466260543
 20
110.549207161189
 30
0.0
 40
3.599999999999999
  1
ヒーター
  7
0
100
AcDbText
  0
CIRCLE
  5
1D54
330
1E
100
AcDbEntity
  8
SC
100
AcDbCircle
 10
108.6739996900843
 20
89.2139998433252
 30
0.0
 40
0.4
  0
TEXT
  5
1D5C
330
1E
100
AcDbEntity
  8
MO
100
AcDbText
 10
285.9059444450257
 20
115.7141898417749
 30
0.0
 40
3.25
  1
ガラスチューブ
  7
0
100
AcDbText
  0
LEADER
  5
1D5D
330
1E
100
AcDbEntity
  8
SC
100
AcDbLeader
  3
Standard
 76
     3
 10
271.9890001075842
 20
90.45000011746632
 30
0.0
 10
283.1860001075842
 20
115.0540001174663
 30
0.0
 10
313.9540001075842
 20
115.0540001174663
 30
0.0
1001
ACAD
1000
DSTYLE
1002
{
1070
   147
1040
0.625
1070
    77
1070
     0
1002
}
  0
TEXT
  5
1D67
330
1E
100
AcDbEntity
  8
MO
100
AcDbText
 10
324.7323067156922
 20
105.2381060127112
 30
0.0
 40
2.799999999999998
  1
耐熱リード線
  7
0
100
AcDbText
  0
LINE
  5
1D68
330
1E
100
AcDbEntity
  8
SC
100
AcDbLine
 10
323.2758006582046
 20
104.5625004804221
 30
0.0
 11
345.2298006582046
 21
104.5625004804221
 31
0.0
  0
LINE
  5
1D69
330
1E
100
AcDbEntity
  8
SC
100
AcDbLine
 10
318.1844449050735
 20
91.80748814627223
 30
0.0
 11
323.2758006582046
 21
104.5625004804221
 31
0.0
1001
ACAD
1000
DSTYLE
1002
{
1070
   147
1040
0.09
1070
    77
1070
     0
1002
}
  0
SOLID
  5
1D6A
330
1E
100
AcDbEntity
  8
SC
100
AcDbTrace
 10
318.4940261827151
 20
91.68391410512745
 30
0.0
 11
317.4430006582046
 21
89.95000048042216
 31
0.0
 12
317.8748636274317
 22
91.93106218741702
 32
0.0
 13
317.8748636274317
 23
91.93106218741702
 33
0.0
1001
ACAD
1000
DSTYLE
1002
{
1070
   147
1040
0.09
1070
    77
1070
     0
1002
}
  0
TEXT
  5
1D79
330
1E
100
AcDbEntity
  8
MO
100
AcDbText
 10
78.23633750974194
 20
32.75375974362896
 30
0.0
 40
3.0625
  1
mm
  7
0
 72
     1
 11
82.02800417640862
 21
32.75375974362896
 31
0.0
100
AcDbText
  0
ENDSEC
  0
SECTION
  2
OBJECTS
  0
DICTIONARY
  5
C
330
0
100
AcDbDictionary
281
     1
  3
ACAD_COLOR
350
1793
  3
ACAD_GROUP
350
D
  3
ACAD_LAYOUT
350
19
  3
ACAD_MATERIAL
350
1792
  3
ACAD_MLINESTYLE
350
16
  3
ACAD_PLOTSETTINGS
350
18
  3
ACAD_PLOTSTYLENAME
350
E
  3
ACAD_TABLESTYLE
350
17A5
  3
ACDBHEADERROUNDTRIPXREC
350
1D7C
  3
AcDbVariableDictionary
350
17B5
  0
DICTIONARY
  5
1793
102
{ACAD_REACTORS
330
C
102
}
330
C
100
AcDbDictionary
281
     1
  0
DICTIONARY
  5
D
102
{ACAD_REACTORS
330
C
102
}
330
C
100
AcDbDictionary
281
     1
  0
DICTIONARY
  5
19
102
{ACAD_REACTORS
330
C
102
}
330
C
100
AcDbDictionary
281
     1
  3
Model
350
21
  3
ﾚｲｱｳﾄ1
350
1D
  0
DICTIONARY
  5
1792
102
{ACAD_REACTORS
330
C
102
}
330
C
100
AcDbDictionary
281
     1
  0
DICTIONARY
  5
16
102
{ACAD_REACTORS
330
C
102
}
330
C
100
AcDbDictionary
281
     1
  3
Standard
350
17
  0
DICTIONARY
  5
18
102
{ACAD_REACTORS
330
C
102
}
330
C
100
AcDbDictionary
281
     1
  0
ACDBDICTIONARYWDFLT
  5
E
102
{ACAD_REACTORS
330
C
102
}
330
C
100
AcDbDictionary
281
     1
  3
Normal
350
F
100
AcDbDictionaryWithDefault
340
F
  0
DICTIONARY
  5
17A5
102
{ACAD_REACTORS
330
C
102
}
330
C
100
AcDbDictionary
281
     1
  3
Standard
350
17A6
  0
DICTIONARY
  5
1D7C
102
{ACAD_REACTORS
330
C
102
}
330
C
100
AcDbDictionary
281
     1
  3
COLORDICT
350
1D7E
  3
MATERIALDICT
350
1D7D
  0
DICTIONARY
  5
17B5
102
{ACAD_REACTORS
330
C
102
}
330
C
100
AcDbDictionary
281
     1
  3
CTABLESTYLE
350
17B6
  3
DIMASSOC
350
1C49
  3
PROJECTNAME
350
1C4A
  0
LAYOUT
  5
21
102
{ACAD_XDICTIONARY
360
1D81
102
}
102
{ACAD_REACTORS
330
19
102
}
330
19
100
AcDbPlotSettings
  1

  2
PrimoPDF
  4
A4
  6
HYOU
 40
3.174999952316284
 41
3.174999952316284
 42
3.175003051757812
 43
3.17498779296875
 44
210.0156707763672
 45
297.0106506347656
 46
-1.0
 47
10.0
 48
0.0
 49
0.0
140
0.0
141
0.0
142
1.0
143
1.458272291292898
 70
 11952
 72
     1
 73
     1
 74
     2
  7
monochrome.ctb
 75
     0
147
0.6857429891323
148
0.0
149
0.0
100
AcDbLayout
  1
Model
 70
     1
 71
     0
 10
0.0
 20
0.0
 11
12.0
 21
9.0
 12
0.0
 22
0.0
 32
0.0
 14
0.0
 24
0.0
 34
0.0
 15
0.0
 25
0.0
 35
0.0
146
0.0
 13
0.0
 23
0.0
 33
0.0
 16
1.0
 26
0.0
 36
0.0
 17
0.0
 27
1.0
 37
0.0
 76
     0
330
1E
1001
ACAD_PSEXT
1000
FX DocuPrint 205
1000
FX DocuPrint 205
1000
USB001
1000

1070
     0
  0
LAYOUT
  5
1D
102
{ACAD_XDICTIONARY
360
1D7F
102
}
102
{ACAD_REACTORS
330
19
102
}
330
19
100
AcDbPlotSettings
  1

  2
EPSON LP-1500S
  4

  6

 40
0.0
 41
0.0
 42
0.0
 43
0.0
 44
0.0
 45
0.0
 46
0.0
 47
0.0
 48
0.0
 49
0.0
140
0.0
141
0.0
142
1.0
143
1.0
 70
   688
 72
     0
 73
     0
 74
     5
  7
monochrome.ctb
 75
    16
147
1.0
148
0.0
149
0.0
100
AcDbLayout
  1
ﾚｲｱｳﾄ1
 70
     0
 71
     1
 10
0.0
 20
0.0
 11
12.0
 21
9.0
 12
0.0
 22
0.0
 32
0.0
 14
1.000000000000000E+20
 24
1.000000000000000E+20
 34
1.000000000000000E+20
 15
-1.000000000000000E+20
 25
-1.000000000000000E+20
 35
-1.000000000000000E+20
146
0.0
 13
0.0
 23
0.0
 33
0.0
 16
1.0
 26
0.0
 36
0.0
 17
0.0
 27
1.0
 37
0.0
 76
     0
330
1A
  0
MLINESTYLE
  5
17
102
{ACAD_REACTORS
330
16
102
}
330
16
100
AcDbMlineStyle
  2
STANDARD
 70
     0
  3

 62
   256
 51
90.0
 52
90.0
 71
     2
 49
0.5
 62
   256
  6
BYLAYER
 49
-0.5
 62
   256
  6
BYLAYER
  0
ACDBPLACEHOLDER
  5
F
102
{ACAD_REACTORS
330
E
102
}
330
E
  0
ACAD_PROXY_OBJECT
  5
17A6
102
{ACAD_REACTORS
330
17A5
102
}
330
17A5
100
AcDbProxyObject
 90
      499
 91
      503
 95
       25
 70
     0
 93
     1841
310
4214DD185B99185C9928B81E85EB51B8AE3F2E07A17AD46E2B8FC02B5E8DC0F42B1CFD028000000C1008070000C3001FDFF8000000C1003FBFF000000182007F7FE00000030400FEFFC00000060801FDFF8000000C1003FBFF00000018200000000000000681FA0B0000001820100E000186003FBFF000000182007F7FE000
310
00030400FEFFC00000060801FDFF8000000C1003FBFF000000182007F7FE000000304000AD7A3703D0AC73F4160000003040201C00030C007F7FE00000030400FEFFC00000060801FDFF8000000C1003FBFF000000182007F7FE00000030400FEFFC000000608000
340
11
340
11
340
11
 94
        0
1001
ACAD
1000
AcRTDxfName
1000
TABLESTYLE
  0
XRECORD
  5
1D7E
102
{ACAD_REACTORS
330
1D7C
102
}
330
1D7C
100
AcDbXrecord
280
     1
340
1793
  0
XRECORD
  5
1D7D
102
{ACAD_REACTORS
330
1D7C
102
}
330
1D7C
100
AcDbXrecord
280
     1
340
1792
  0
DICTIONARYVAR
  5
17B6
102
{ACAD_REACTORS
330
17B5
102
}
330
17B5
100
DictionaryVariables
280
     0
  1
STANDARD
  0
DICTIONARYVAR
  5
1C49
102
{ACAD_REACTORS
330
17B5
102
}
330
17B5
100
DictionaryVariables
280
     0
  1
1
  0
DICTIONARYVAR
  5
1C4A
102
{ACAD_REACTORS
330
17B5
102
}
330
17B5
100
DictionaryVariables
280
     0
  1

  0
DICTIONARY
  5
1D81
330
21
100
AcDbDictionary
280
     1
281
     1
  3
ACAD_XREC_ROUNDTRIP
360
1D82
  0
DICTIONARY
  5
1D7F
330
1D
100
AcDbDictionary
280
     1
281
     1
  3
ACAD_XREC_ROUNDTRIP
360
1D80
  0
XRECORD
  5
1D82
102
{ACAD_REACTORS
330
1D81
102
}
330
1D81
100
AcDbXrecord
280
     1
102
SHADEPLOT
 70
     0
102
SHADEPLOTRESLEVEL
 70
     2
102
SHADEPLOTCUSTOMDPI
 70
   300
  0
XRECORD
  5
1D80
102
{ACAD_REACTORS
330
1D7F
102
}
330
1D7F
100
AcDbXrecord
280
     1
102
SHADEPLOT
 70
     0
102
SHADEPLOTRESLEVEL
 70
     2
102
SHADEPLOTCUSTOMDPI
 70
   300
  0
ENDSEC
  0
EOF
