  0
SECTION
  2
HEADER
  9
$ACADVER
  1
AC1015
  9
$ACADMAINTVER
 70
    20
  9
$DWGCODEPAGE
  3
ANSI_932
  9
$INSBASE
 10
0.0
 20
0.0
 30
0.0
  9
$EXTMIN
 10
3.191529301916716
 20
2.71005318489631
 30
-0.0000000000000129
  9
$EXTMAX
 10
404.5358285966049
 20
294.199310990981
 30
0.0000000000000023
  9
$LIMMIN
 10
0.0
 20
0.0
  9
$LIMMAX
 10
420.0
 20
297.0
  9
$ORTHOMODE
 70
     0
  9
$REGENMODE
 70
     1
  9
$FILLMODE
 70
     1
  9
$QTEXTMODE
 70
     0
  9
$MIRRTEXT
 70
     1
  9
$LTSCALE
 40
12.0
  9
$ATTMODE
 70
     1
  9
$TEXTSIZE
 40
10.0
  9
$TRACEWID
 40
0.3
  9
$TEXTSTYLE
  7
0
  9
$CLAYER
  8
0
  9
$CELTYPE
  6
ByLayer
  9
$CECOLOR
 62
   256
  9
$CELTSCALE
 40
1.0
  9
$DISPSILH
 70
     0
  9
$DIMSCALE
 40
1.0
  9
$DIMASZ
 40
2.0
  9
$DIMEXO
 40
0.0625
  9
$DIMDLI
 40
0.38
  9
$DIMRND
 40
0.0
  9
$DIMDLE
 40
0.0
  9
$DIMEXE
 40
0.18
  9
$DIMTP
 40
0.0
  9
$DIMTM
 40
0.0
  9
$DIMTXT
 40
2.0
  9
$DIMCEN
 40
0.09
  9
$DIMTSZ
 40
0.0
  9
$DIMTOL
 70
     0
  9
$DIMLIM
 70
     0
  9
$DIMTIH
 70
     1
  9
$DIMTOH
 70
     1
  9
$DIMSE1
 70
     0
  9
$DIMSE2
 70
     0
  9
$DIMTAD
 70
     0
  9
$DIMZIN
 70
     0
  9
$DIMBLK
  1

  9
$DIMASO
 70
     1
  9
$DIMSHO
 70
     0
  9
$DIMPOST
  1

  9
$DIMAPOST
  1

  9
$DIMALT
 70
     0
  9
$DIMALTD
 70
     2
  9
$DIMALTF
 40
25.4
  9
$DIMLFAC
 40
1.0
  9
$DIMTOFL
 70
     0
  9
$DIMTVP
 40
0.0
  9
$DIMTIX
 70
     0
  9
$DIMSOXD
 70
     0
  9
$DIMSAH
 70
     0
  9
$DIMBLK1
  1

  9
$DIMBLK2
  1

  9
$DIMSTYLE
  2
Standard
  9
$DIMCLRD
 70
     0
  9
$DIMCLRE
 70
     0
  9
$DIMCLRT
 70
     0
  9
$DIMTFAC
 40
1.0
  9
$DIMGAP
 40
0.09
  9
$DIMJUST
 70
     0
  9
$DIMSD1
 70
     0
  9
$DIMSD2
 70
     0
  9
$DIMTOLJ
 70
     1
  9
$DIMTZIN
 70
     0
  9
$DIMALTZ
 70
     0
  9
$DIMALTTZ
 70
     0
  9
$DIMUPT
 70
     0
  9
$DIMDEC
 70
     4
  9
$DIMTDEC
 70
     4
  9
$DIMALTU
 70
     2
  9
$DIMALTTD
 70
     2
  9
$DIMTXSTY
  7
STANDARD
  9
$DIMAUNIT
 70
     0
  9
$DIMADEC
 70
     0
  9
$DIMALTRND
 40
0.0
  9
$DIMAZIN
 70
     0
  9
$DIMDSEP
 70
    46
  9
$DIMATFIT
 70
     3
  9
$DIMFRAC
 70
     0
  9
$DIMLDRBLK
  1

  9
$DIMLUNIT
 70
     2
  9
$DIMLWD
 70
    -2
  9
$DIMLWE
 70
    -2
  9
$DIMTMOVE
 70
     0
  9
$LUNITS
 70
     2
  9
$LUPREC
 70
     4
  9
$SKETCHINC
 40
0.1
  9
$FILLETRAD
 40
0.0
  9
$AUNITS
 70
     0
  9
$AUPREC
 70
     1
  9
$MENU
  1
ACAD
  9
$ELEVATION
 40
0.0
  9
$PELEVATION
 40
0.0
  9
$THICKNESS
 40
0.0
  9
$LIMCHECK
 70
     0
  9
$CHAMFERA
 40
0.0
  9
$CHAMFERB
 40
0.0
  9
$CHAMFERC
 40
0.0
  9
$CHAMFERD
 40
0.0
  9
$SKPOLY
 70
     0
  9
$TDCREATE
 40
2450808.702418171
  9
$TDUCREATE
 40
2450808.327418172
  9
$TDUPDATE
 40
2456199.620594248
  9
$TDUUPDATE
 40
2456199.245594248
  9
$TDINDWG
 40
1.6880895023
  9
$TDUSRTIMER
 40
1.6880895023
  9
$USRTIMER
 70
     1
  9
$ANGBASE
 50
0.0
  9
$ANGDIR
 70
     0
  9
$PDMODE
 70
     0
  9
$PDSIZE
 40
0.0
  9
$PLINEWID
 40
1.0
  9
$SPLFRAME
 70
     0
  9
$SPLINETYPE
 70
     6
  9
$SPLINESEGS
 70
     8
  9
$HANDSEED
  5
1A4A
  9
$SURFTAB1
 70
     6
  9
$SURFTAB2
 70
     6
  9
$SURFTYPE
 70
     6
  9
$SURFU
 70
     6
  9
$SURFV
 70
     6
  9
$UCSBASE
  2

  9
$UCSNAME
  2

  9
$UCSORG
 10
0.0
 20
0.0
 30
0.0
  9
$UCSXDIR
 10
1.0
 20
0.0
 30
0.0
  9
$UCSYDIR
 10
0.0
 20
1.0
 30
0.0
  9
$UCSORTHOREF
  2

  9
$UCSORTHOVIEW
 70
     0
  9
$UCSORGTOP
 10
0.0
 20
0.0
 30
0.0
  9
$UCSORGBOTTOM
 10
0.0
 20
0.0
 30
0.0
  9
$UCSORGLEFT
 10
0.0
 20
0.0
 30
0.0
  9
$UCSORGRIGHT
 10
0.0
 20
0.0
 30
0.0
  9
$UCSORGFRONT
 10
0.0
 20
0.0
 30
0.0
  9
$UCSORGBACK
 10
0.0
 20
0.0
 30
0.0
  9
$PUCSBASE
  2

  9
$PUCSNAME
  2

  9
$PUCSORG
 10
0.0
 20
0.0
 30
0.0
  9
$PUCSXDIR
 10
1.0
 20
0.0
 30
0.0
  9
$PUCSYDIR
 10
0.0
 20
1.0
 30
0.0
  9
$PUCSORTHOREF
  2

  9
$PUCSORTHOVIEW
 70
     0
  9
$PUCSORGTOP
 10
0.0
 20
0.0
 30
0.0
  9
$PUCSORGBOTTOM
 10
0.0
 20
0.0
 30
0.0
  9
$PUCSORGLEFT
 10
0.0
 20
0.0
 30
0.0
  9
$PUCSORGRIGHT
 10
0.0
 20
0.0
 30
0.0
  9
$PUCSORGFRONT
 10
0.0
 20
0.0
 30
0.0
  9
$PUCSORGBACK
 10
0.0
 20
0.0
 30
0.0
  9
$USERI1
 70
     0
  9
$USERI2
 70
     0
  9
$USERI3
 70
     0
  9
$USERI4
 70
     0
  9
$USERI5
 70
     0
  9
$USERR1
 40
0.0
  9
$USERR2
 40
0.0
  9
$USERR3
 40
0.0
  9
$USERR4
 40
0.0
  9
$USERR5
 40
0.0
  9
$WORLDVIEW
 70
     1
  9
$SHADEDGE
 70
     3
  9
$SHADEDIF
 70
    70
  9
$TILEMODE
 70
     1
  9
$MAXACTVP
 70
    16
  9
$PINSBASE
 10
0.0
 20
0.0
 30
0.0
  9
$PLIMCHECK
 70
     0
  9
$PEXTMIN
 10
1.000000000000000E+20
 20
1.000000000000000E+20
 30
1.000000000000000E+20
  9
$PEXTMAX
 10
-1.000000000000000E+20
 20
-1.000000000000000E+20
 30
-1.000000000000000E+20
  9
$PLIMMIN
 10
0.0
 20
0.0
  9
$PLIMMAX
 10
12.0
 20
9.0
  9
$UNITMODE
 70
     0
  9
$VISRETAIN
 70
     0
  9
$PLINEGEN
 70
     0
  9
$PSLTSCALE
 70
     0
  9
$TREEDEPTH
 70
  3020
  9
$CMLSTYLE
  2
Standard
  9
$CMLJUST
 70
     0
  9
$CMLSCALE
 40
1.0
  9
$PROXYGRAPHICS
 70
     1
  9
$MEASUREMENT
 70
     0
  9
$CELWEIGHT
370
    -1
  9
$ENDCAPS
280
     0
  9
$JOINSTYLE
280
     0
  9
$LWDISPLAY
290
     0
  9
$INSUNITS
 70
     0
  9
$HYPERLINKBASE
  1

  9
$STYLESHEET
  1
monochrome.ctb
  9
$XEDIT
290
     1
  9
$CEPSNTYPE
380
     0
  9
$PSTYLEMODE
290
     1
  9
$FINGERPRINTGUID
  2
{51BC8342-4694-11D4-A1F9-0060672295C7}
  9
$VERSIONGUID
  2
{775BE8D0-559E-4383-BF16-E75B2A6CA509}
  9
$EXTNAMES
290
     1
  9
$PSVPSCALE
 40
0.0
  9
$OLESTARTUP
290
     0
  0
ENDSEC
  0
SECTION
  2
CLASSES
  0
CLASS
  1
ACDBDICTIONARYWDFLT
  2
AcDbDictionaryWithDefault
  3
ObjectDBX Classes
 90
        0
280
     0
281
     0
  0
CLASS
  1
ACDBPLACEHOLDER
  2
AcDbPlaceHolder
  3
ObjectDBX Classes
 90
        0
280
     0
281
     0
  0
CLASS
  1
LAYOUT
  2
AcDbLayout
  3
ObjectDBX Classes
 90
        0
280
     0
281
     0
  0
CLASS
  1
TABLESTYLE
  2
AcDbTableStyle
  3
ObjectDBX Classes
 90
     2047
280
     0
281
     0
  0
CLASS
  1
DICTIONARYVAR
  2
AcDbDictionaryVar
  3
ObjectDBX Classes
 90
        0
280
     0
281
     0
  0
ENDSEC
  0
SECTION
  2
TABLES
  0
TABLE
  2
VPORT
  5
8
330
0
100
AcDbSymbolTable
 70
     3
  0
VPORT
  5
1A42
330
8
100
AcDbSymbolTableRecord
100
AcDbViewportTableRecord
  2
*Active
 70
     0
 10
0.0
 20
0.0
 11
1.0
 21
1.0
 12
210.0
 22
148.5
 13
0.0
 23
0.0
 14
0.001
 24
0.001
 15
10.0
 25
10.0
 16
0.0
 26
0.0
 36
1.0
 17
0.0
 27
0.0
 37
0.0
 40
300.6
 41
2.417004048582995
 42
50.0
 43
0.0
 44
0.0
 50
0.0
 51
0.0
 71
     0
 72
  2000
 73
     1
 74
     0
 75
     1
 76
     1
 77
     0
 78
     2
281
     0
 65
     1
110
0.0
120
0.0
130
0.0
111
1.0
121
0.0
131
0.0
112
0.0
122
1.0
132
0.0
 79
     0
146
0.0
  0
ENDTAB
  0
TABLE
  2
LTYPE
  5
5
330
0
100
AcDbSymbolTable
 70
     3
  0
LTYPE
  5
13
330
5
100
AcDbSymbolTableRecord
100
AcDbLinetypeTableRecord
  2
ByBlock
 70
     0
  3

 72
    65
 73
     0
 40
0.0
  0
LTYPE
  5
14
330
5
100
AcDbSymbolTableRecord
100
AcDbLinetypeTableRecord
  2
ByLayer
 70
     0
  3

 72
    65
 73
     0
 40
0.0
  0
LTYPE
  5
15
330
5
100
AcDbSymbolTableRecord
100
AcDbLinetypeTableRecord
  2
CONTINUOUS
 70
     0
  3
実線
 72
    65
 73
     0
 40
0.0
  0
LTYPE
  5
23
330
5
100
AcDbSymbolTableRecord
100
AcDbLinetypeTableRecord
  2
CENTER
 70
     0
  3
____ _ ____ _ ____ _ ____ _ ____ _ ____ _ ____
 72
    65
 73
     4
 40
2.0
 49
1.25
 74
     0
 49
-0.25
 74
     0
 49
0.25
 74
     0
 49
-0.25
 74
     0
  0
LTYPE
  5
24
330
5
100
AcDbSymbolTableRecord
100
AcDbLinetypeTableRecord
  2
HIDDEN
 70
     0
  3
_ _ _ _ _ _ _ _ _ _ _ _ _ _ _ _ _ _ _ _ _ _ _
 72
    65
 73
     2
 40
0.375
 49
0.25
 74
     0
 49
-0.125
 74
     0
  0
ENDTAB
  0
TABLE
  2
LAYER
  5
2
330
0
100
AcDbSymbolTable
 70
     9
  0
LAYER
  5
10
330
2
100
AcDbSymbolTableRecord
100
AcDbLayerTableRecord
  2
0
 70
     0
 62
     7
  6
CONTINUOUS
370
    -3
390
F
  0
LAYER
  5
28
330
2
100
AcDbSymbolTableRecord
100
AcDbLayerTableRecord
  2
HO
 70
     0
 62
     2
  6
CENTER
370
    13
390
F
  0
LAYER
  5
29
330
2
100
AcDbSymbolTableRecord
100
AcDbLayerTableRecord
  2
HA
 70
     0
 62
     4
  6
HIDDEN
370
    13
390
F
  0
LAYER
  5
2A
330
2
100
AcDbSymbolTableRecord
100
AcDbLayerTableRecord
  2
SB
 70
     0
 62
     1
  6
CONTINUOUS
370
    20
390
F
  0
LAYER
  5
2B
330
2
100
AcDbSymbolTableRecord
100
AcDbLayerTableRecord
  2
SA
 70
     0
 62
     7
  6
CONTINUOUS
370
    30
390
F
  0
LAYER
  5
2C
330
2
100
AcDbSymbolTableRecord
100
AcDbLayerTableRecord
  2
MO
 70
     0
 62
     3
  6
CONTINUOUS
370
    20
390
F
  0
LAYER
  5
2D
330
2
100
AcDbSymbolTableRecord
100
AcDbLayerTableRecord
  2
SC
 70
     0
 62
     6
  6
CONTINUOUS
370
    13
390
F
  0
LAYER
  5
2E
330
2
100
AcDbSymbolTableRecord
100
AcDbLayerTableRecord
  2
DEFPOINTS
 70
     0
 62
     7
  6
CONTINUOUS
290
     0
370
    -3
390
F
  0
LAYER
  5
1397
330
2
100
AcDbSymbolTableRecord
100
AcDbLayerTableRecord
  2
sd
 70
     0
 62
     1
  6
CONTINUOUS
370
    20
390
F
  0
ENDTAB
  0
TABLE
  2
STYLE
  5
3
330
0
100
AcDbSymbolTable
 70
     2
  0
STYLE
  5
11
330
3
100
AcDbSymbolTableRecord
100
AcDbTextStyleTableRecord
  2
STANDARD
 70
     0
 40
0.0
 41
1.0
 50
0.0
 71
     0
 42
0.2
  3
TXT
  4

  0
STYLE
  5
22
330
3
100
AcDbSymbolTableRecord
100
AcDbTextStyleTableRecord
  2
0
 70
     0
 40
0.0
 41
1.0
 50
0.0
 71
     0
 42
10.0
  3
SIMPLEX
  4
BIGFONT
  0
ENDTAB
  0
TABLE
  2
VIEW
  5
6
330
0
100
AcDbSymbolTable
 70
     1
  0
VIEW
  5
25
330
6
100
AcDbSymbolTableRecord
100
AcDbViewTableRecord
  2
HYOU
 70
     0
 40
162.519
 10
329.94
 20
84.5855
 41
158.206
 11
0.0
 21
0.0
 31
1.0
 12
0.0
 22
0.0
 32
0.0
 42
0.0
 43
0.0
 44
0.0
 50
0.0
 71
     0
281
     0
 72
     0
  0
ENDTAB
  0
TABLE
  2
UCS
  5
7
330
0
100
AcDbSymbolTable
 70
     0
  0
ENDTAB
  0
TABLE
  2
APPID
  5
9
330
0
100
AcDbSymbolTable
 70
     2
  0
APPID
  5
12
330
9
100
AcDbSymbolTableRecord
100
AcDbRegAppTableRecord
  2
ACAD
 70
     0
  0
APPID
  5
17B3
330
9
100
AcDbSymbolTableRecord
100
AcDbRegAppTableRecord
  2
ACAD_PSEXT
 70
     0
  0
ENDTAB
  0
TABLE
  2
DIMSTYLE
  5
A
330
0
100
AcDbSymbolTable
 70
     1
100
AcDbDimStyleTable
 71
     1
340
3C3
  0
DIMSTYLE
105
3C3
330
A
100
AcDbSymbolTableRecord
100
AcDbDimStyleTableRecord
  2
Standard
 70
     0
 41
2.0
140
2.0
340
11
  0
ENDTAB
  0
TABLE
  2
BLOCK_RECORD
  5
1
330
0
100
AcDbSymbolTable
 70
     0
  0
BLOCK_RECORD
  5
1E
330
1
100
AcDbSymbolTableRecord
100
AcDbBlockTableRecord
  2
*Model_Space
340
21
  0
BLOCK_RECORD
  5
1A
330
1
100
AcDbSymbolTableRecord
100
AcDbBlockTableRecord
  2
*Paper_Space
340
1D
  0
ENDTAB
  0
ENDSEC
  0
SECTION
  2
BLOCKS
  0
BLOCK
  5
31
330
1E
100
AcDbEntity
  8
0
100
AcDbBlockBegin
  2
*Model_Space
 70
     0
 10
0.0
 20
0.0
 30
0.0
  3
*Model_Space
  1

  0
ENDBLK
  5
32
330
1E
100
AcDbEntity
  8
0
100
AcDbBlockEnd
  0
BLOCK
  5
2F
330
1A
100
AcDbEntity
 67
     1
  8
0
100
AcDbBlockBegin
  2
*Paper_Space
 70
     0
 10
0.0
 20
0.0
 30
0.0
  3
*Paper_Space
  1

  0
ENDBLK
  5
30
330
1A
100
AcDbEntity
 67
     1
  8
0
100
AcDbBlockEnd
  0
ENDSEC
  0
SECTION
  2
ENTITIES
  0
TEXT
  5
61
330
1E
100
AcDbEntity
  8
MO
100
AcDbText
 10
328.5
 20
53.5
 30
0.0
 40
4.0
  1

  7
0
 72
     1
 11
328.5
 21
53.5
 31
0.0
100
AcDbText
  0
TEXT
  5
62
330
1E
100
AcDbEntity
  8
MO
100
AcDbText
 10
328.5
 20
47.0
 30
0.0
 40
4.0
  1

  7
0
 72
     1
 11
328.5
 21
47.0
 31
0.0
100
AcDbText
  0
TEXT
  5
63
330
1E
100
AcDbEntity
  8
MO
100
AcDbText
 10
328.5
 20
34.0
 30
0.0
 40
4.0
  1

  7
0
 72
     1
 11
328.5
 21
34.0
 31
0.0
100
AcDbText
  0
TEXT
  5
6E
330
1E
100
AcDbEntity
  8
MO
100
AcDbText
 10
328.204
 20
39.802
 30
0.0
 40
4.0
  1

  7
0
 72
     1
 11
328.204
 21
39.802
 31
0.0
100
AcDbText
  0
TEXT
  5
89
330
1E
100
AcDbEntity
  8
MO
100
AcDbText
 10
82.20200000000009
 20
51.07199999999998
 30
0.0
 40
3.0
  1

  7
0
100
AcDbText
  0
TEXT
  5
8B
330
1E
100
AcDbEntity
  8
MO
100
AcDbText
 10
110.859
 20
51.07199999999998
 30
0.0
 40
3.0
  1

  7
0
100
AcDbText
  0
TEXT
  5
8D
330
1E
100
AcDbEntity
  8
MO
100
AcDbText
 10
360.261
 20
19.91099999999999
 30
0.0
 40
7.0
  1

  7
0
 72
     4
 11
360.261
 21
19.91099999999999
 31
0.0
100
AcDbText
  0
TEXT
  5
91
330
1E
100
AcDbEntity
  8
MO
370
    40
100
AcDbText
 10
213.859222257722
 20
248.2942159269637
 30
0.0
 40
10.8
  1
１ピース型バンドヒーター
  7
0
100
AcDbText
  0
TEXT
  5
AC
330
1E
100
AcDbEntity
  8
MO
100
AcDbText
 10
103.1910000000001
 20
51.07199999999996
 30
0.0
 40
3.0
  1

  7
0
100
AcDbText
  0
LINE
  5
109D
330
1E
100
AcDbEntity
  8
HO
100
AcDbLine
 10
211.209074109084
 20
139.415
 30
0.0
 11
341.3554411495105
 21
139.4149999999999
 31
0.0
  0
TEXT
  5
1399
330
1E
100
AcDbEntity
  8
MO
100
AcDbText
 10
75.70200000000008
 20
51.07199999999998
 30
0.0
 40
3.0
  1

  7
0
100
AcDbText
  0
TEXT
  5
139C
330
1E
100
AcDbEntity
  8
MO
100
AcDbText
 10
110.859
 20
63.07199999999996
 30
0.0
 40
3.0
  1

  7
0
100
AcDbText
  0
TEXT
  5
139F
330
1E
100
AcDbEntity
  8
SC
100
AcDbText
 10
135.033
 20
64.98099999999995
 30
0.0
 40
2.0
  1

  7
0
100
AcDbText
  0
TEXT
  5
13A0
330
1E
100
AcDbEntity
  8
MO
100
AcDbText
 10
110.859
 20
45.07200000000001
 30
0.0
 40
3.0
  1

  7
0
100
AcDbText
  0
TEXT
  5
148E
330
1E
100
AcDbEntity
  8
MO
100
AcDbText
 10
355.9181320877766
 20
10.917
 30
0.0
 40
5.0
  1
株）
  7
0
 72
     1
 11
359.9181320877766
 21
10.917
 31
0.0
100
AcDbText
  0
TEXT
  5
1491
330
1E
100
AcDbEntity
  8
SC
100
AcDbText
 10
103.7564
 20
117.6597333333333
 30
0.0
 40
0.25
  1

100
AcDbText
  0
TEXT
  5
1492
330
1E
100
AcDbEntity
  8
MO
100
AcDbText
 10
367.191
 20
10.917
 30
0.0
 40
6.0
  1
愛西電熱
  7
0
 72
     1
 11
380.7910000000001
 21
10.917
 31
0.0
100
AcDbText
  0
ARC
  5
1549
330
1E
100
AcDbEntity
  8
SA
100
AcDbCircle
 10
272.709074109084
 20
139.415
 30
0.0
 40
50.0
100
AcDbArc
 50
185.0
 51
175.0
  0
LINE
  5
154B
330
1E
100
AcDbEntity
  8
HO
100
AcDbLine
 10
230.4229061737181
 20
124.0240935503449
 30
0.0
 11
199.2251111636259
 21
112.6690247919326
 31
0.0
  0
LINE
  5
1550
330
1E
100
AcDbEntity
  8
SC
100
AcDbLine
 10
217.2223000314005
 20
126.6687102476011
 30
0.0
 11
222.0105820379598
 21
113.5130135565984
 31
0.0
  0
LINE
  5
1551
330
1E
100
AcDbEntity
  8
SC
100
AcDbLine
 10
216.7524537210075
 20
126.4977001759382
 30
0.0
 11
221.5407357275668
 21
113.3420034849355
 31
0.0
  0
LINE
  5
1552
330
1E
100
AcDbEntity
  8
SC
100
AcDbLine
 10
216.2826074106146
 20
126.3266901042754
 30
0.0
 11
221.0708894171739
 21
113.1709934132727
 31
0.0
  0
LINE
  5
1553
330
1E
100
AcDbEntity
  8
SB
100
AcDbLine
 10
215.8127611002216
 20
126.1556800326125
 30
0.0
 11
220.6010431067809
 21
112.9999833416098
 31
0.0
  0
LINE
  5
1554
330
1E
100
AcDbEntity
  8
SB
100
AcDbLine
 10
217.6921463417934
 20
126.8397203192639
 30
0.0
 11
222.4804283483528
 21
113.6840236282611
 31
0.0
  0
LINE
  5
1557
330
1E
100
AcDbEntity
  8
SB
100
AcDbLine
 10
222.4804283483528
 20
113.6840236282612
 30
0.0
 11
220.6010431067809
 21
112.9999833416098
 31
0.0
  0
LINE
  5
1558
330
1E
100
AcDbEntity
  8
SB
100
AcDbLine
 10
213.8494238148658
 20
120.4394481702812
 30
0.0
 11
216.6685016772235
 21
121.4655086002582
 31
0.0
  0
LINE
  5
1559
330
1E
100
AcDbEntity
  8
SB
100
AcDbLine
 10
213.0627774852169
 20
122.6007411980889
 30
0.0
 11
215.8818553475745
 21
123.6268016280658
 31
0.0
  0
LINE
  5
155A
330
1E
100
AcDbEntity
  8
SB
100
AcDbLine
 10
215.4227164741639
 20
116.116862114666
 30
0.0
 11
218.2417943365216
 21
117.1429225446431
 31
0.0
  0
LINE
  5
155B
330
1E
100
AcDbEntity
  8
SB
100
AcDbLine
 10
216.209362803813
 20
113.9555690868585
 30
0.0
 11
219.0284406661706
 21
114.9816295168355
 31
0.0
  0
LINE
  5
155F
330
1E
100
AcDbEntity
  8
SB
100
AcDbLine
 10
215.5740372185814
 20
124.4725249867731
 30
0.0
 11
219.3362587951637
 21
114.1359061581282
 31
0.0
  0
LINE
  5
1560
330
1E
100
AcDbEntity
  8
SB
100
AcDbLine
 10
220.0880128917924
 20
114.4095222727887
 30
0.0
 11
219.3362587951637
 21
114.1359061581282
 31
0.0
  0
LINE
  5
1563
330
1E
100
AcDbEntity
  8
SB
100
AcDbLine
 10
216.3257913152101
 20
124.7461411014337
 30
0.0
 11
215.5740372185813
 21
124.4725249867731
 31
0.0
  0
LINE
  5
1567
330
1E
100
AcDbEntity
  8
SB
100
AcDbLine
 10
217.6921463417934
 20
126.8397203192639
 30
0.0
 11
215.8127611002216
 21
126.1556800326126
 31
0.0
  0
ARC
  5
156D
330
1E
100
AcDbEntity
  8
SB
100
AcDbCircle
 10
212.5703125331541
 20
117.5262808607295
 30
0.0
 40
3.901666666666711
100
AcDbArc
 50
163.8790561276019
 51
236.1209438723983
  0
LINE
  5
156E
330
1E
100
AcDbEntity
  8
SB
100
AcDbLine
 10
210.5466816973769
 20
122.6427172199809
 30
0.0
 11
214.3089032739593
 21
112.3060983913359
 31
0.0
  0
LINE
  5
156F
330
1E
100
AcDbEntity
  8
SB
100
AcDbLine
 10
211.2984357940055
 20
122.9163333346414
 30
0.0
 11
215.0606573705879
 21
112.5797145059964
 31
0.0
  0
ARC
  5
1570
330
1E
100
AcDbEntity
  8
SB
100
AcDbCircle
 10
217.5976680543585
 20
119.3560886275218
 30
0.0
 40
3.901666666666711
100
AcDbArc
 50
163.8790561276019
 51
236.1209438723983
  0
LINE
  5
1571
330
1E
100
AcDbEntity
  8
SB
100
AcDbLine
 10
212.0501898906342
 20
123.1899494493019
 30
0.0
 11
215.8124114672167
 21
112.8533306206569
 31
0.0
  0
LINE
  5
1572
330
1E
100
AcDbEntity
  8
SB
100
AcDbLine
 10
210.3953609529594
 20
114.2870543478738
 30
0.0
 11
213.2144388153172
 21
115.3131147778508
 31
0.0
  0
LINE
  5
1573
330
1E
100
AcDbEntity
  8
SB
100
AcDbLine
 10
211.1820072826086
 20
112.1257613200663
 30
0.0
 11
214.0010851449662
 21
113.1518217500433
 31
0.0
  0
LINE
  5
1574
330
1E
100
AcDbEntity
  8
SB
100
AcDbLine
 10
215.8124114672167
 20
112.853330620657
 30
0.0
 11
214.3089032739593
 21
112.3060983913359
 31
0.0
  0
LINE
  5
1575
330
1E
100
AcDbEntity
  8
SB
100
AcDbLine
 10
215.1112701733989
 20
114.779700493268
 30
0.0
 11
216.2093628038129
 21
113.9555690868585
 31
0.0
  0
ARC
  5
1576
330
1E
100
AcDbEntity
  8
SB
100
AcDbCircle
 10
216.2921505668532
 20
115.2095058067139
 30
0.0
 40
1.256666666666669
100
AcDbArc
 50
133.7773160792556
 51
200.0
  0
LINE
  5
1577
330
1E
100
AcDbEntity
  8
SB
100
AcDbLine
 10
210.0839146521945
 20
112.9498927264757
 30
0.0
 11
211.1820072826084
 21
112.1257613200662
 31
0.0
  0
ARC
  5
1578
330
1E
100
AcDbEntity
  8
SB
100
AcDbCircle
 10
211.2647950456488
 20
113.3796980399216
 30
0.0
 40
1.256666666666669
100
AcDbArc
 50
133.7773160792556
 51
200.0
  0
LINE
  5
1579
330
1E
100
AcDbEntity
  8
SB
100
AcDbLine
 10
208.8220682936614
 20
118.609640403489
 30
0.0
 11
211.6411461560191
 21
119.635700833466
 31
0.0
  0
LINE
  5
157A
330
1E
100
AcDbEntity
  8
SB
100
AcDbLine
 10
208.0354219640123
 20
120.7709334312966
 30
0.0
 11
210.85449982637
 21
121.7969938612736
 31
0.0
  0
LINE
  5
157B
330
1E
100
AcDbEntity
  8
SB
100
AcDbLine
 10
212.0501898906343
 20
123.1899494493019
 30
0.0
 11
210.5466816973769
 21
122.6427172199809
 31
0.0
  0
LINE
  5
157C
330
1E
100
AcDbEntity
  8
SB
100
AcDbLine
 10
212.7513311844518
 20
121.2635795766908
 30
0.0
 11
213.0627774852167
 21
122.6007411980888
 31
0.0
  0
ARC
  5
157D
330
1E
100
AcDbEntity
  8
SB
100
AcDbCircle
 10
213.9322115779061
 20
121.6933848901367
 30
0.0
 40
1.256666666666669
100
AcDbArc
 50
200.0
 51
266.2226839207444
  0
LINE
  5
157E
330
1E
100
AcDbEntity
  8
SB
100
AcDbLine
 10
207.7239756632474
 20
119.4337718098985
 30
0.0
 11
208.0354219640123
 21
120.7709334312966
 31
0.0
  0
ARC
  5
157F
330
1E
100
AcDbEntity
  8
SB
100
AcDbCircle
 10
208.9048560567017
 20
119.8635771233445
 30
0.0
 40
1.256666666666669
100
AcDbArc
 50
200.0
 51
266.2226839207444
  0
LINE
  5
1582
330
1E
100
AcDbEntity
  8
SC
100
AcDbLine
 10
203.7732933748307
 20
116.98487216802
 30
0.0
 11
205.4833940914591
 21
112.2864090640905
 31
0.0
  0
LINE
  5
1583
330
1E
100
AcDbEntity
  8
SB
100
AcDbLine
 10
203.3250390167355
 20
116.0235875949364
 30
0.0
 11
204.5221095183754
 21
112.7346634221857
 31
0.0
  0
LINE
  5
1585
330
1E
100
AcDbEntity
  8
SC
100
AcDbLine
 10
204.5221095183753
 20
112.7346634221857
 30
0.0
 11
209.5024804085409
 21
114.5473701818118
 31
0.0
  0
LINE
  5
1586
330
1E
100
AcDbEntity
  8
SB
100
AcDbLine
 10
205.4833940914591
 20
112.2864090640905
 30
0.0
 11
209.7589955160351
 21
113.8426007162223
 31
0.0
  0
LINE
  5
1589
330
1E
100
AcDbEntity
  8
SB
100
AcDbLine
 10
204.5221095183754
 20
112.7346634221857
 30
0.0
 11
205.4833940914591
 21
112.2864090640905
 31
0.0
  0
LINE
  5
158A
330
1E
100
AcDbEntity
  8
SC
100
AcDbLine
 10
203.3250390167355
 20
116.0235875949364
 30
0.0
 11
208.305409906901
 21
117.8362943545625
 31
0.0
  0
LINE
  5
158B
330
1E
100
AcDbEntity
  8
SB
100
AcDbLine
 10
203.7732933748307
 20
116.9848721680201
 30
0.0
 11
208.0488947994067
 21
118.541063820152
 31
0.0
  0
LINE
  5
158E
330
1E
100
AcDbEntity
  8
SB
100
AcDbLine
 10
203.3250390167355
 20
116.0235875949364
 30
0.0
 11
203.7732933748307
 21
116.98487216802
 31
0.0
  0
ARC
  5
1598
330
1E
100
AcDbEntity
  8
SA
100
AcDbCircle
 10
272.709074109084
 20
139.415
 30
0.0
 40
54.0
100
AcDbArc
 50
9.758256595381807
 51
14.89799375661732
  0
LINE
  5
1599
330
1E
100
AcDbEntity
  8
SC
100
AcDbLine
 10
218.0341664851191
 20
125.900027698478
 30
0.0
 11
219.9022115325914
 21
128.126277094931
 31
0.0
  0
LINE
  5
159C
330
1E
100
AcDbEntity
  8
SC
100
AcDbLine
 10
222.1384082050271
 20
114.623716249047
 30
0.0
 11
225.0004192612513
 21
114.1190664807488
 31
0.0
  0
LINE
  5
159D
330
1E
100
AcDbEntity
  8
SC
100
AcDbLine
 10
207.7239756632474
 20
119.4337718098985
 30
0.0
 11
210.0839146521945
 21
112.9498927264757
 31
0.0
  0
CIRCLE
  5
159F
330
1E
100
AcDbEntity
  8
SA
100
AcDbCircle
 10
272.709074109084
 20
139.415
 30
0.0
 40
53.2
  0
LINE
  5
15A7
330
1E
100
AcDbEntity
  8
HO
100
AcDbLine
 10
320.0554411495105
 20
129.4149999999999
 30
0.0
 11
341.6554411495106
 21
129.4149999999999
 31
0.0
  0
LINE
  5
15A8
330
1E
100
AcDbEntity
  8
HO
100
AcDbLine
 10
320.0554411495105
 20
149.4149999999999
 30
0.0
 11
341.6554411495106
 21
149.415
 31
0.0
  0
CIRCLE
  5
15AA
330
1E
100
AcDbEntity
  8
SA
100
AcDbCircle
 10
330.8554411495105
 20
129.415
 30
0.0
 40
5.0
  0
ARC
  5
15AB
330
1E
100
AcDbEntity
  8
SA
100
AcDbCircle
 10
330.8554411495105
 20
129.415
 30
0.0
 40
5.799999999999999
100
AcDbArc
 50
231.7522513518051
 51
170.241743404618
  0
ARC
  5
15B3
330
1E
100
AcDbEntity
  8
SA
100
AcDbCircle
 10
326.2793058321104
 20
123.098435620779
 30
0.0
 40
2.0
100
AcDbArc
 50
54.07795274589882
 51
163.060172708276
  0
ARC
  5
15B4
330
1E
100
AcDbEntity
  8
SA
100
AcDbCircle
 10
326.2793058321104
 20
123.098435620779
 30
0.0
 40
2.799999999999999
100
AcDbArc
 50
54.07795274589882
 51
163.060172708276
  0
ARC
  5
15B5
330
1E
100
AcDbEntity
  8
SA
100
AcDbCircle
 10
272.709074109084
 20
139.415
 30
0.0
 40
54.0
100
AcDbArc
 50
345.1020062433826
 51
349.3280707142378
  0
ARC
  5
15B6
330
1E
100
AcDbEntity
  8
SA
100
AcDbCircle
 10
330.8554411495105
 20
149.4149999999999
 30
0.0
 40
5.799999999999999
100
AcDbArc
 50
189.7582565953819
 51
128.2477486481948
  0
CIRCLE
  5
15B7
330
1E
100
AcDbEntity
  8
SA
100
AcDbCircle
 10
330.8554411495105
 20
149.4149999999999
 30
0.0
 40
5.0
  0
ARC
  5
15B8
330
1E
100
AcDbEntity
  8
SA
100
AcDbCircle
 10
326.2793058321104
 20
155.7315643792209
 30
0.0
 40
2.799999999999999
100
AcDbArc
 50
196.939827291724
 51
305.9220472541012
  0
ARC
  5
15B9
330
1E
100
AcDbEntity
  8
SA
100
AcDbCircle
 10
326.2793058321104
 20
155.7315643792209
 30
0.0
 40
2.0
100
AcDbArc
 50
196.939827291724
 51
305.9220472541012
  0
ARC
  5
15BA
330
1E
100
AcDbEntity
  8
SA
100
AcDbCircle
 10
272.709074109084
 20
139.4149999999999
 30
0.0
 40
54.0
100
AcDbArc
 50
10.67192928576218
 51
14.8979937566174
  0
ARC
  5
15BB
330
1E
100
AcDbEntity
  8
SA
100
AcDbCircle
 10
272.709074109084
 20
139.415
 30
0.0
 40
54.0
100
AcDbArc
 50
16.93982729172418
 51
343.0601727082757
  0
LINE
  5
15BC
330
1E
100
AcDbEntity
  8
HO
100
AcDbLine
 10
330.8554411495105
 20
166.2149999999999
 30
0.0
 11
330.8554411495105
 21
110.2149999999999
 31
0.0
  0
LINE
  5
15BE
330
1E
100
AcDbEntity
  8
SB
100
AcDbLine
 10
325.8554411495105
 20
155.2149999999999
 30
0.0
 11
335.8554411495105
 21
155.2149999999999
 31
0.0
  0
LINE
  5
15C0
330
1E
100
AcDbEntity
  8
SA
100
AcDbLine
 10
333.8554411495105
 20
155.2149999999999
 30
0.0
 11
333.8554411495105
 21
154.3788694583963
 31
0.0
  0
LINE
  5
15C1
330
1E
100
AcDbEntity
  8
SA
100
AcDbLine
 10
327.8554411495105
 20
155.2149999999999
 30
0.0
 11
327.8554411495106
 21
154.3788694583963
 31
0.0
  0
LINE
  5
15C2
330
1E
100
AcDbEntity
  8
SB
100
AcDbLine
 10
326.6554411495106
 20
161.2149999999999
 30
0.0
 11
335.0554411495104
 21
161.2149999999999
 31
0.0
  0
LINE
  5
15C3
330
1E
100
AcDbEntity
  8
SB
100
AcDbLine
 10
335.8554411495105
 20
160.4149999999999
 30
0.0
 11
335.8554411495105
 21
155.2149999999999
 31
0.0
  0
LINE
  5
15C4
330
1E
100
AcDbEntity
  8
SB
100
AcDbLine
 10
325.8554411495105
 20
160.4149999999999
 30
0.0
 11
325.8554411495105
 21
155.2149999999999
 31
0.0
  0
LINE
  5
15C5
330
1E
100
AcDbEntity
  8
SB
100
AcDbLine
 10
325.8554411495105
 20
160.4149999999999
 30
0.0
 11
335.8554411495105
 21
160.415
 31
0.0
  0
LINE
  5
15C8
330
1E
100
AcDbEntity
  8
SB
100
AcDbLine
 10
326.6554411495106
 20
161.2149999999999
 30
0.0
 11
325.8554411495105
 21
160.4149999999999
 31
0.0
  0
LINE
  5
15C9
330
1E
100
AcDbEntity
  8
SB
100
AcDbLine
 10
335.0554411495106
 20
161.2149999999999
 30
0.0
 11
335.8554411495105
 21
160.4149999999999
 31
0.0
  0
LINE
  5
15CC
330
1E
100
AcDbEntity
  8
SC
100
AcDbLine
 10
325.8554411495105
 20
159.1913670404266
 30
0.0
 11
329.8318081899371
 21
155.2149999999999
 31
0.0
  0
LINE
  5
15CD
330
1E
100
AcDbEntity
  8
SC
100
AcDbLine
 10
325.8554411495105
 20
160.2520272122064
 30
0.0
 11
330.892468361717
 21
155.2149999999999
 31
0.0
  0
LINE
  5
15CE
330
1E
100
AcDbEntity
  8
SC
100
AcDbLine
 10
326.7531285334968
 20
160.4149999999999
 30
0.0
 11
331.9531285334968
 21
155.2149999999999
 31
0.0
  0
LINE
  5
15CF
330
1E
100
AcDbEntity
  8
SC
100
AcDbLine
 10
327.8137887052766
 20
160.4149999999999
 30
0.0
 11
333.0137887052765
 21
155.2149999999999
 31
0.0
  0
LINE
  5
15D0
330
1E
100
AcDbEntity
  8
SC
100
AcDbLine
 10
328.8744488770565
 20
160.4149999999999
 30
0.0
 11
334.0744488770564
 21
155.2149999999999
 31
0.0
  0
LINE
  5
15D1
330
1E
100
AcDbEntity
  8
SC
100
AcDbLine
 10
329.9351090488362
 20
160.4149999999999
 30
0.0
 11
335.1351090488362
 21
155.2149999999999
 31
0.0
  0
LINE
  5
15D2
330
1E
100
AcDbEntity
  8
SC
100
AcDbLine
 10
330.9957692206161
 20
160.4149999999999
 30
0.0
 11
335.8554411495105
 21
155.5553280711054
 31
0.0
  0
LINE
  5
15D3
330
1E
100
AcDbEntity
  8
SC
100
AcDbLine
 10
332.056429392396
 20
160.4149999999999
 30
0.0
 11
335.8554411495105
 21
156.6159882428853
 31
0.0
  0
LINE
  5
15D4
330
1E
100
AcDbEntity
  8
SC
100
AcDbLine
 10
333.1170895641758
 20
160.4149999999999
 30
0.0
 11
335.8554411495105
 21
157.6766484146651
 31
0.0
  0
LINE
  5
15D5
330
1E
100
AcDbEntity
  8
SC
100
AcDbLine
 10
334.1777497359556
 20
160.4149999999999
 30
0.0
 11
335.8554411495105
 21
158.737308586445
 31
0.0
  0
LINE
  5
15D6
330
1E
100
AcDbEntity
  8
SC
100
AcDbLine
 10
335.2384099077355
 20
160.4149999999999
 30
0.0
 11
335.8554411495105
 21
159.7979687582248
 31
0.0
  0
LINE
  5
15D7
330
1E
100
AcDbEntity
  8
SC
100
AcDbLine
 10
325.8554411495105
 20
158.1307068686467
 30
0.0
 11
328.7711480181573
 21
155.2149999999999
 31
0.0
  0
LINE
  5
15D8
330
1E
100
AcDbEntity
  8
SC
100
AcDbLine
 10
325.8554411495105
 20
157.070046696867
 30
0.0
 11
327.7104878463775
 21
155.2149999999999
 31
0.0
  0
LINE
  5
15D9
330
1E
100
AcDbEntity
  8
SC
100
AcDbLine
 10
325.8554411495105
 20
156.0093865250872
 30
0.0
 11
326.6498276745978
 21
155.2149999999999
 31
0.0
  0
LINE
  5
15DB
330
1E
100
AcDbEntity
  8
SC
100
AcDbLine
 10
335.8554411495105
 20
156.969386525087
 30
0.0
 11
334.1010546244234
 21
155.2149999999999
 31
0.0
  0
LINE
  5
15DC
330
1E
100
AcDbEntity
  8
SC
100
AcDbLine
 10
335.8554411495105
 20
158.0300466968668
 30
0.0
 11
333.0403944526437
 21
155.2149999999999
 31
0.0
  0
LINE
  5
15DD
330
1E
100
AcDbEntity
  8
SC
100
AcDbLine
 10
335.8554411495105
 20
159.0907068686466
 30
0.0
 11
331.9797342808638
 21
155.2149999999999
 31
0.0
  0
LINE
  5
15DF
330
1E
100
AcDbEntity
  8
SC
100
AcDbLine
 10
326.5731325630655
 20
160.4149999999999
 30
0.0
 11
325.8554411495105
 21
159.6973085864449
 31
0.0
  0
LINE
  5
15E0
330
1E
100
AcDbEntity
  8
SC
100
AcDbLine
 10
327.6337927348453
 20
160.4149999999999
 30
0.0
 11
325.8554411495105
 21
158.6366484146651
 31
0.0
  0
LINE
  5
15E1
330
1E
100
AcDbEntity
  8
SC
100
AcDbLine
 10
328.6944529066252
 20
160.4149999999999
 30
0.0
 11
325.8554411495105
 21
157.5759882428853
 31
0.0
  0
LINE
  5
15E2
330
1E
100
AcDbEntity
  8
SC
100
AcDbLine
 10
329.755113078405
 20
160.4149999999999
 30
0.0
 11
325.8554411495105
 21
156.5153280711054
 31
0.0
  0
LINE
  5
15E3
330
1E
100
AcDbEntity
  8
SC
100
AcDbLine
 10
330.8157732501848
 20
160.4149999999999
 30
0.0
 11
325.8554411495105
 21
155.4546678993256
 31
0.0
  0
LINE
  5
15E4
330
1E
100
AcDbEntity
  8
SC
100
AcDbLine
 10
331.8764334219646
 20
160.4149999999999
 30
0.0
 11
326.6764334219647
 21
155.2149999999999
 31
0.0
  0
LINE
  5
15E5
330
1E
100
AcDbEntity
  8
SC
100
AcDbLine
 10
332.9370935937445
 20
160.415
 30
0.0
 11
327.7370935937445
 21
155.2149999999999
 31
0.0
  0
LINE
  5
15E6
330
1E
100
AcDbEntity
  8
SC
100
AcDbLine
 10
333.9977537655243
 20
160.415
 30
0.0
 11
328.7977537655243
 21
155.2149999999999
 31
0.0
  0
LINE
  5
15E7
330
1E
100
AcDbEntity
  8
SC
100
AcDbLine
 10
335.0584139373042
 20
160.415
 30
0.0
 11
329.8584139373041
 21
155.2149999999999
 31
0.0
  0
LINE
  5
15E8
330
1E
100
AcDbEntity
  8
SC
100
AcDbLine
 10
335.8554411495105
 20
160.1513670404264
 30
0.0
 11
330.919074109084
 21
155.2149999999999
 31
0.0
  0
LINE
  5
15E9
330
1E
100
AcDbEntity
  8
SC
100
AcDbLine
 10
335.8554411495105
 20
155.9087263533071
 30
0.0
 11
335.1617147962033
 21
155.2149999999999
 31
0.0
  0
LINE
  5
15EB
330
1E
100
AcDbEntity
  8
SA
100
AcDbLine
 10
328.6054411495105
 20
115.2149999999999
 30
0.0
 11
333.1054411495105
 21
115.2149999999999
 31
0.0
  0
LINE
  5
15EC
330
1E
100
AcDbEntity
  8
SC
100
AcDbLine
 10
327.8554411495105
 20
115.9649999999999
 30
0.0
 11
333.8554411495105
 21
115.9649999999999
 31
0.0
  0
LINE
  5
15ED
330
1E
100
AcDbEntity
  8
SC
100
AcDbLine
 10
328.6054411495105
 20
155.2149999999999
 30
0.0
 11
328.6054411495105
 21
154.7607927382194
 31
0.0
  0
LINE
  5
15EE
330
1E
100
AcDbEntity
  8
SC
100
AcDbLine
 10
333.1054411495105
 20
155.2149999999999
 30
0.0
 11
333.1054411495105
 21
154.7607927382194
 31
0.0
  0
LINE
  5
15EF
330
1E
100
AcDbEntity
  8
SA
100
AcDbLine
 10
327.8554411495105
 20
115.9649999999999
 30
0.0
 11
328.6054411495105
 21
115.2149999999999
 31
0.0
  0
LINE
  5
15F0
330
1E
100
AcDbEntity
  8
SA
100
AcDbLine
 10
333.8554411495105
 20
115.9649999999999
 30
0.0
 11
333.1054411495105
 21
115.2149999999999
 31
0.0
  0
LINE
  5
15F1
330
1E
100
AcDbEntity
  8
SC
100
AcDbLine
 10
328.6054411495105
 20
144.0692072617804
 30
0.0
 11
328.6054411495105
 21
134.7607927382194
 31
0.0
  0
LINE
  5
15F2
330
1E
100
AcDbEntity
  8
SA
100
AcDbLine
 10
327.8554411495105
 20
144.4511305416035
 30
0.0
 11
327.8554411495105
 21
134.3788694583963
 31
0.0
  0
LINE
  5
15F3
330
1E
100
AcDbEntity
  8
SC
100
AcDbLine
 10
333.1054411495105
 20
144.0692072617804
 30
0.0
 11
333.1054411495105
 21
134.7607927382194
 31
0.0
  0
LINE
  5
15F4
330
1E
100
AcDbEntity
  8
SA
100
AcDbLine
 10
333.8554411495105
 20
144.4511305416036
 30
0.0
 11
333.8554411495105
 21
134.3788694583963
 31
0.0
  0
LINE
  5
15F5
330
1E
100
AcDbEntity
  8
SA
100
AcDbLine
 10
333.8554411495105
 20
124.4511305416036
 30
0.0
 11
333.8554411495105
 21
115.9649999999999
 31
0.0
  0
LINE
  5
15F6
330
1E
100
AcDbEntity
  8
SC
100
AcDbLine
 10
333.1054411495105
 20
124.0692072617805
 30
0.0
 11
333.1054411495105
 21
115.2149999999999
 31
0.0
  0
LINE
  5
15F7
330
1E
100
AcDbEntity
  8
SC
100
AcDbLine
 10
328.6054411495105
 20
124.0692072617805
 30
0.0
 11
328.6054411495105
 21
115.2149999999999
 31
0.0
  0
LINE
  5
15F8
330
1E
100
AcDbEntity
  8
SA
100
AcDbLine
 10
327.8554411495105
 20
124.4511305416036
 30
0.0
 11
327.8554411495105
 21
115.9649999999999
 31
0.0
  0
LINE
  5
15FD
330
1E
100
AcDbEntity
  8
SC
100
AcDbLine
 10
218.0341664851191
 20
152.9299723015219
 30
0.0
 11
219.9022115325914
 21
150.703722905069
 31
0.0
  0
LINE
  5
15FE
330
1E
100
AcDbEntity
  8
SB
100
AcDbLine
 10
220.0880128917924
 20
164.4204777272112
 30
0.0
 11
219.3362587951637
 21
164.6940938418718
 31
0.0
  0
LINE
  5
15FF
330
1E
100
AcDbEntity
  8
SC
100
AcDbLine
 10
217.2223000314005
 20
152.1612897523989
 30
0.0
 11
222.0105820379598
 21
165.3169864434015
 31
0.0
  0
LINE
  5
1600
330
1E
100
AcDbEntity
  8
SC
100
AcDbLine
 10
216.7524537210075
 20
152.3322998240617
 30
0.0
 11
221.5407357275668
 21
165.4879965150644
 31
0.0
  0
LINE
  5
1601
330
1E
100
AcDbEntity
  8
SC
100
AcDbLine
 10
216.2826074106146
 20
152.5033098957245
 30
0.0
 11
221.0708894171739
 21
165.6590065867273
 31
0.0
  0
LINE
  5
1602
330
1E
100
AcDbEntity
  8
SB
100
AcDbLine
 10
215.8127611002216
 20
152.6743199673874
 30
0.0
 11
220.6010431067809
 21
165.8300166583901
 31
0.0
  0
LINE
  5
1603
330
1E
100
AcDbEntity
  8
SB
100
AcDbLine
 10
217.6921463417934
 20
151.9902796807361
 30
0.0
 11
222.4804283483528
 21
165.1459763717388
 31
0.0
  0
LINE
  5
1604
330
1E
100
AcDbEntity
  8
SC
100
AcDbLine
 10
203.3250390167355
 20
162.8064124050636
 30
0.0
 11
208.305409906901
 21
160.9937056454374
 31
0.0
  0
LINE
  5
1605
330
1E
100
AcDbEntity
  8
SB
100
AcDbLine
 10
203.3250390167355
 20
162.8064124050636
 30
0.0
 11
203.7732933748307
 21
161.8451278319799
 31
0.0
  0
LINE
  5
1606
330
1E
100
AcDbEntity
  8
SB
100
AcDbLine
 10
203.3250390167355
 20
162.8064124050636
 30
0.0
 11
204.5221095183754
 21
166.0953365778143
 31
0.0
  0
LINE
  5
1607
330
1E
100
AcDbEntity
  8
SB
100
AcDbLine
 10
215.5740372185814
 20
154.3574750132268
 30
0.0
 11
219.3362587951637
 21
164.6940938418718
 31
0.0
  0
LINE
  5
1608
330
1E
100
AcDbEntity
  8
SB
100
AcDbLine
 10
212.7513311844518
 20
157.5664204233091
 30
0.0
 11
213.0627774852167
 21
156.2292588019111
 31
0.0
  0
LINE
  5
1609
330
1E
100
AcDbEntity
  8
SB
100
AcDbLine
 10
212.0501898906342
 20
155.640050550698
 30
0.0
 11
215.8124114672167
 21
165.976669379343
 31
0.0
  0
LINE
  5
160A
330
1E
100
AcDbEntity
  8
SB
100
AcDbLine
 10
211.2984357940055
 20
155.9136666653586
 30
0.0
 11
215.0606573705879
 21
166.2502854940035
 31
0.0
  0
LINE
  5
160B
330
1E
100
AcDbEntity
  8
SB
100
AcDbLine
 10
210.5466816973769
 20
156.1872827800191
 30
0.0
 11
214.3089032739593
 21
166.523901608664
 31
0.0
  0
LINE
  5
160C
330
1E
100
AcDbEntity
  8
SB
100
AcDbLine
 10
208.8220682936614
 20
160.2203595965109
 30
0.0
 11
211.6411461560191
 21
159.194299166534
 31
0.0
  0
LINE
  5
160D
330
1E
100
AcDbEntity
  8
SB
100
AcDbLine
 10
210.3953609529594
 20
164.5429456521262
 30
0.0
 11
213.2144388153172
 21
163.5168852221491
 31
0.0
  0
LINE
  5
160E
330
1E
100
AcDbEntity
  8
SB
100
AcDbLine
 10
211.1820072826086
 20
166.7042386799337
 30
0.0
 11
214.0010851449662
 21
165.6781782499567
 31
0.0
  0
LINE
  5
160F
330
1E
100
AcDbEntity
  8
SC
100
AcDbLine
 10
203.7732933748307
 20
161.8451278319799
 30
0.0
 11
205.4833940914591
 21
166.5435909359094
 31
0.0
  0
LINE
  5
1610
330
1E
100
AcDbEntity
  8
SC
100
AcDbLine
 10
207.7239756632474
 20
159.3962281901014
 30
0.0
 11
210.0839146521945
 21
165.8801072735242
 31
0.0
  0
ARC
  5
1611
330
1E
100
AcDbEntity
  8
SB
100
AcDbCircle
 10
212.5703125331541
 20
161.3037191392704
 30
0.0
 40
3.901666666666711
100
AcDbArc
 50
123.8790561276017
 51
196.120943872398
  0
LINE
  5
1612
330
1E
100
AcDbEntity
  8
SC
100
AcDbLine
 10
204.5221095183753
 20
166.0953365778142
 30
0.0
 11
209.5024804085409
 21
164.2826298181881
 31
0.0
  0
LINE
  5
1613
330
1E
100
AcDbEntity
  8
SB
100
AcDbLine
 10
205.4833940914591
 20
166.5435909359095
 30
0.0
 11
209.7589955160351
 21
164.9873992837776
 31
0.0
  0
LINE
  5
1614
330
1E
100
AcDbEntity
  8
SB
100
AcDbLine
 10
204.5221095183754
 20
166.0953365778143
 30
0.0
 11
205.4833940914591
 21
166.5435909359094
 31
0.0
  0
ARC
  5
1615
330
1E
100
AcDbEntity
  8
SB
100
AcDbCircle
 10
211.2647950456488
 20
165.4503019600783
 30
0.0
 40
1.256666666666669
100
AcDbArc
 50
160.0
 51
226.2226839207444
  0
LINE
  5
1616
330
1E
100
AcDbEntity
  8
SB
100
AcDbLine
 10
210.0839146521945
 20
165.8801072735242
 30
0.0
 11
211.1820072826084
 21
166.7042386799337
 31
0.0
  0
LINE
  5
1617
330
1E
100
AcDbEntity
  8
SB
100
AcDbLine
 10
203.7732933748307
 20
161.8451278319799
 30
0.0
 11
208.0488947994067
 21
160.2889361798479
 31
0.0
  0
ARC
  5
1618
330
1E
100
AcDbEntity
  8
SB
100
AcDbCircle
 10
208.9048560567017
 20
158.9664228766555
 30
0.0
 40
1.256666666666669
100
AcDbArc
 50
93.77731607925561
 51
160.0
  0
LINE
  5
1619
330
1E
100
AcDbEntity
  8
SB
100
AcDbLine
 10
207.7239756632474
 20
159.3962281901014
 30
0.0
 11
208.0354219640123
 21
158.0590665687034
 31
0.0
  0
LINE
  5
161A
330
1E
100
AcDbEntity
  8
SB
100
AcDbLine
 10
208.0354219640123
 20
158.0590665687033
 30
0.0
 11
210.85449982637
 21
157.0330061387264
 31
0.0
  0
LINE
  5
161B
330
1E
100
AcDbEntity
  8
SB
100
AcDbLine
 10
215.4227164741639
 20
162.7131378853339
 30
0.0
 11
218.2417943365216
 21
161.6870774553568
 31
0.0
  0
ARC
  5
161C
330
1E
100
AcDbEntity
  8
SB
100
AcDbCircle
 10
217.5976680543585
 20
159.4739113724782
 30
0.0
 40
3.901666666666711
100
AcDbArc
 50
123.8790561276017
 51
196.120943872398
  0
LINE
  5
161D
330
1E
100
AcDbEntity
  8
SB
100
AcDbLine
 10
215.1112701733989
 20
164.0502995067319
 30
0.0
 11
216.2093628038129
 21
164.8744309131415
 31
0.0
  0
LINE
  5
161E
330
1E
100
AcDbEntity
  8
SB
100
AcDbLine
 10
215.8124114672167
 20
165.976669379343
 30
0.0
 11
214.3089032739593
 21
166.523901608664
 31
0.0
  0
ARC
  5
161F
330
1E
100
AcDbEntity
  8
SB
100
AcDbCircle
 10
216.2921505668532
 20
163.620494193286
 30
0.0
 40
1.256666666666669
100
AcDbArc
 50
160.0
 51
226.2226839207444
  0
LINE
  5
1620
330
1E
100
AcDbEntity
  8
SB
100
AcDbLine
 10
216.209362803813
 20
164.8744309131414
 30
0.0
 11
219.0284406661706
 21
163.8483704831644
 31
0.0
  0
LINE
  5
1621
330
1E
100
AcDbEntity
  8
SB
100
AcDbLine
 10
213.8494238148658
 20
158.3905518297187
 30
0.0
 11
216.6685016772235
 21
157.3644913997417
 31
0.0
  0
ARC
  5
1622
330
1E
100
AcDbEntity
  8
SB
100
AcDbCircle
 10
213.9322115779061
 20
157.1366151098632
 30
0.0
 40
1.256666666666669
100
AcDbArc
 50
93.77731607925561
 51
160.0
  0
LINE
  5
1623
330
1E
100
AcDbEntity
  8
SB
100
AcDbLine
 10
212.0501898906343
 20
155.640050550698
 30
0.0
 11
210.5466816973769
 21
156.1872827800191
 31
0.0
  0
LINE
  5
1624
330
1E
100
AcDbEntity
  8
SB
100
AcDbLine
 10
216.3257913152101
 20
154.0838588985663
 30
0.0
 11
215.5740372185813
 21
154.3574750132268
 31
0.0
  0
LINE
  5
1625
330
1E
100
AcDbEntity
  8
SB
100
AcDbLine
 10
213.0627774852169
 20
156.229258801911
 30
0.0
 11
215.8818553475745
 21
155.2031983719341
 31
0.0
  0
LINE
  5
1626
330
1E
100
AcDbEntity
  8
SB
100
AcDbLine
 10
217.6921463417934
 20
151.990279680736
 30
0.0
 11
215.8127611002216
 21
152.6743199673874
 31
0.0
  0
LINE
  5
1627
330
1E
100
AcDbEntity
  8
SC
100
AcDbLine
 10
222.1384082050271
 20
164.2062837509529
 30
0.0
 11
225.0004192612513
 21
164.7109335192511
 31
0.0
  0
LINE
  5
1628
330
1E
100
AcDbEntity
  8
SB
100
AcDbLine
 10
222.4804283483528
 20
165.1459763717387
 30
0.0
 11
220.6010431067809
 21
165.8300166583901
 31
0.0
  0
LINE
  5
162C
330
1E
100
AcDbEntity
  8
HO
100
AcDbLine
 10
230.4229061737181
 20
154.8059064496551
 30
0.0
 11
199.2251111636259
 21
166.1609752080673
 31
0.0
  0
LINE
  5
162D
330
1E
100
AcDbEntity
  8
SA
100
AcDbLine
 10
222.8993392044967
 20
135.0572128626171
 30
0.0
 11
219.7115161706031
 21
134.7783144858246
 31
0.0
  0
LINE
  5
162E
330
1E
100
AcDbEntity
  8
SA
100
AcDbLine
 10
222.8993392044967
 20
143.7727871373829
 30
0.0
 11
219.7115161706031
 21
144.0516855141754
 31
0.0
  0
LINE
  5
1632
330
1E
100
AcDbEntity
  8
HO
100
AcDbLine
 10
127.7090741090839
 20
200.915
 30
0.0
 11
127.7090741090839
 21
77.91499999999999
 31
0.0
  0
LINE
  5
1633
330
1E
100
AcDbEntity
  8
SA
100
AcDbLine
 10
152.7090741090839
 20
193.415
 30
0.0
 11
102.7090741090839
 21
193.415
 31
0.0
  0
LINE
  5
1634
330
1E
100
AcDbEntity
  8
SA
100
AcDbLine
 10
152.7090741090839
 20
85.41499999999997
 30
0.0
 11
102.7090741090839
 21
85.41499999999997
 31
0.0
  0
LINE
  5
1637
330
1E
100
AcDbEntity
  8
HO
100
AcDbLine
 10
145.2090741090839
 20
164.4508744914389
 30
0.0
 11
110.2090741090839
 21
164.4508744914389
 31
0.0
  0
CIRCLE
  5
163A
330
1E
100
AcDbEntity
  8
SA
100
AcDbCircle
 10
127.7090741090839
 20
164.4508744914389
 30
0.0
 40
2.5
  0
LINE
  5
163C
330
1E
100
AcDbEntity
  8
SA
100
AcDbLine
 10
127.7090741090839
 20
169.0508744914389
 30
0.0
 11
131.6927909664923
 21
166.7508744914389
 31
0.0
  0
LINE
  5
163D
330
1E
100
AcDbEntity
  8
SA
100
AcDbLine
 10
131.6927909664923
 20
166.7508744914389
 30
0.0
 11
131.6927909664923
 21
162.1508744914388
 31
0.0
  0
LINE
  5
163E
330
1E
100
AcDbEntity
  8
SA
100
AcDbLine
 10
127.7090741090839
 20
159.8508744914389
 30
0.0
 11
131.6927909664923
 21
162.1508744914389
 31
0.0
  0
LINE
  5
163F
330
1E
100
AcDbEntity
  8
SA
100
AcDbLine
 10
127.7090741090838
 20
169.0508744914389
 30
0.0
 11
123.7253572516754
 21
166.7508744914389
 31
0.0
  0
LINE
  5
1640
330
1E
100
AcDbEntity
  8
SA
100
AcDbLine
 10
123.7253572516754
 20
166.7508744914389
 30
0.0
 11
123.7253572516755
 21
162.1508744914388
 31
0.0
  0
LINE
  5
1641
330
1E
100
AcDbEntity
  8
SA
100
AcDbLine
 10
127.7090741090838
 20
159.8508744914389
 30
0.0
 11
123.7253572516754
 21
162.1508744914389
 31
0.0
  0
CIRCLE
  5
1642
330
1E
100
AcDbEntity
  8
SC
100
AcDbCircle
 10
127.7090741090839
 20
164.4508744914389
 30
0.0
 40
3.983716857408481
  0
CIRCLE
  5
1643
330
1E
100
AcDbEntity
  8
SC
100
AcDbCircle
 10
127.7090741090839
 20
164.4508744914389
 30
0.0
 40
1.9
  0
CIRCLE
  5
1644
330
1E
100
AcDbEntity
  8
SA
100
AcDbCircle
 10
127.7090741090839
 20
164.4508744914389
 30
0.0
 40
7.0
  0
LINE
  5
1645
330
1E
100
AcDbEntity
  8
HO
100
AcDbLine
 10
95.20907410908396
 20
139.415
 30
0.0
 11
160.2090741090839
 21
139.4149999999999
 31
0.0
  0
ARC
  5
1647
330
1E
100
AcDbEntity
  8
SA
100
AcDbCircle
 10
127.7090741090839
 20
164.4508744914389
 30
0.0
 40
12.5
100
AcDbArc
 50
0.0
 51
180.0
  0
LINE
  5
1648
330
1E
100
AcDbEntity
  8
SA
100
AcDbLine
 10
115.2090741090839
 20
164.4508744914389
 30
0.0
 11
115.2090741090839
 21
114.379125508561
 31
0.0
  0
LINE
  5
1649
330
1E
100
AcDbEntity
  8
SA
100
AcDbLine
 10
140.2090741090839
 20
164.4508744914389
 30
0.0
 11
140.2090741090839
 21
114.379125508561
 31
0.0
  0
LINE
  5
164A
330
1E
100
AcDbEntity
  8
SA
100
AcDbLine
 10
152.7090741090839
 20
193.415
 30
0.0
 11
152.7090741090839
 21
85.41499999999999
 31
0.0
  0
LINE
  5
164B
330
1E
100
AcDbEntity
  8
SA
100
AcDbLine
 10
102.7090741090839
 20
193.415
 30
0.0
 11
102.7090741090839
 21
85.41499999999997
 31
0.0
  0
ARC
  5
164C
330
1E
100
AcDbEntity
  8
SA
100
AcDbCircle
 10
127.7090741090839
 20
114.379125508561
 30
0.0
 40
12.5
100
AcDbArc
 50
180.0
 51
0.0
  0
CIRCLE
  5
164D
330
1E
100
AcDbEntity
  8
SC
100
AcDbCircle
 10
127.7090741090839
 20
114.379125508561
 30
0.0
 40
1.9
  0
CIRCLE
  5
164E
330
1E
100
AcDbEntity
  8
SA
100
AcDbCircle
 10
127.7090741090839
 20
114.379125508561
 30
0.0
 40
2.5
  0
CIRCLE
  5
164F
330
1E
100
AcDbEntity
  8
SC
100
AcDbCircle
 10
127.7090741090839
 20
114.379125508561
 30
0.0
 40
3.983716857408481
  0
LINE
  5
1650
330
1E
100
AcDbEntity
  8
SA
100
AcDbLine
 10
127.7090741090839
 20
109.779125508561
 30
0.0
 11
131.6927909664923
 21
112.079125508561
 31
0.0
  0
LINE
  5
1651
330
1E
100
AcDbEntity
  8
SA
100
AcDbLine
 10
127.7090741090839
 20
118.979125508561
 30
0.0
 11
131.6927909664923
 21
116.6791255085611
 31
0.0
  0
CIRCLE
  5
1652
330
1E
100
AcDbEntity
  8
SA
100
AcDbCircle
 10
127.7090741090839
 20
114.379125508561
 30
0.0
 40
7.0
  0
LINE
  5
1653
330
1E
100
AcDbEntity
  8
SA
100
AcDbLine
 10
127.7090741090838
 20
109.779125508561
 30
0.0
 11
123.7253572516754
 21
112.079125508561
 31
0.0
  0
LINE
  5
1654
330
1E
100
AcDbEntity
  8
SA
100
AcDbLine
 10
123.7253572516754
 20
112.079125508561
 30
0.0
 11
123.7253572516755
 21
116.6791255085611
 31
0.0
  0
LINE
  5
1655
330
1E
100
AcDbEntity
  8
SA
100
AcDbLine
 10
127.7090741090838
 20
118.979125508561
 30
0.0
 11
123.7253572516754
 21
116.6791255085611
 31
0.0
  0
LINE
  5
1656
330
1E
100
AcDbEntity
  8
SA
100
AcDbLine
 10
131.6927909664923
 20
112.079125508561
 30
0.0
 11
131.6927909664923
 21
116.6791255085611
 31
0.0
  0
LINE
  5
1657
330
1E
100
AcDbEntity
  8
HO
100
AcDbLine
 10
145.2090741090839
 20
114.379125508561
 30
0.0
 11
110.2090741090839
 21
114.379125508561
 31
0.0
  0
LINE
  5
1658
330
1E
100
AcDbEntity
  8
HA
100
AcDbLine
 10
152.7090741090839
 20
189.4149999999999
 30
0.0
 11
102.7090741090839
 21
189.415
 31
0.0
  0
LINE
  5
1659
330
1E
100
AcDbEntity
  8
HA
100
AcDbLine
 10
152.7090741090839
 20
89.41499999999996
 30
0.0
 11
102.7090741090839
 21
89.41500000000003
 31
0.0
  0
LINE
  5
165E
330
1E
100
AcDbEntity
  8
SA
100
AcDbLine
 10
140.2090741090839
 20
134.7783144858245
 30
0.0
 11
115.2090741090839
 21
134.7783144858245
 31
0.0
  0
LINE
  5
165F
330
1E
100
AcDbEntity
  8
SA
100
AcDbLine
 10
140.2090741090839
 20
144.0516855141753
 30
0.0
 11
115.2090741090839
 21
144.0516855141753
 31
0.0
  0
LINE
  5
1661
330
1E
100
AcDbEntity
  8
HA
100
AcDbLine
 10
115.2090741090839
 20
144.0516855141753
 30
0.0
 11
102.7090741090839
 21
144.0516855141753
 31
0.0
  0
LINE
  5
1662
330
1E
100
AcDbEntity
  8
HA
100
AcDbLine
 10
115.2090741090839
 20
134.7783144858246
 30
0.0
 11
102.7090741090839
 21
134.7783144858246
 31
0.0
  0
LINE
  5
1663
330
1E
100
AcDbEntity
  8
HA
100
AcDbLine
 10
140.2090741090839
 20
134.7783144858246
 30
0.0
 11
152.7090741090839
 21
134.7783144858246
 31
0.0
  0
LINE
  5
1664
330
1E
100
AcDbEntity
  8
HA
100
AcDbLine
 10
140.2090741090839
 20
144.0516855141753
 30
0.0
 11
152.7090741090839
 21
144.0516855141753
 31
0.0
  0
LINE
  5
16E2
330
1E
100
AcDbEntity
  8
SC
100
AcDbLine
 10
327.314074109084
 20
189.3999999999999
 30
0.0
 11
237.6906974882639
 21
107.32195871622
 31
0.0
  0
SOLID
  5
16E4
330
1E
100
AcDbEntity
  8
SC
100
AcDbTrace
 10
307.4459328239059
 20
171.8152200260678
 30
0.0
 11
308.0089686359021
 21
171.200862541492
 31
0.0
 12
309.5705231836314
 22
173.1971487197684
 32
0.0
 13
309.5705231836314
 23
173.1971487197684
 33
0.0
  0
SOLID
  5
16E5
330
1E
100
AcDbEntity
  8
SC
100
AcDbTrace
 10
237.4091795822659
 20
107.6291374585079
 30
0.0
 11
237.972215394262
 21
107.0147799739321
 31
0.0
 12
235.8476250345365
 22
105.6328512802315
 32
0.0
 13
235.8476250345365
 23
105.6328512802315
 33
0.0
  0
LINE
  5
16E6
330
1E
100
AcDbEntity
  8
SC
100
AcDbLine
 10
152.7090741090839
 20
194.415
 30
0.0
 11
152.7090741090839
 21
207.915
 31
0.0
  0
LINE
  5
16E7
330
1E
100
AcDbEntity
  8
SC
100
AcDbLine
 10
102.7090741090839
 20
194.415
 30
0.0
 11
102.7090741090839
 21
207.915
 31
0.0
  0
LINE
  5
16E8
330
1E
100
AcDbEntity
  8
SC
100
AcDbLine
 10
150.2090741090839
 20
205.915
 30
0.0
 11
105.2090741090839
 21
205.915
 31
0.0
  0
SOLID
  5
16E9
330
1E
100
AcDbEntity
  8
SC
100
AcDbTrace
 10
150.2090741090839
 20
206.3316666666667
 30
0.0
 11
150.2090741090839
 21
205.4983333333333
 31
0.0
 12
152.7090741090839
 22
205.915
 32
0.0
 13
152.7090741090839
 23
205.915
 33
0.0
  0
SOLID
  5
16EA
330
1E
100
AcDbEntity
  8
SC
100
AcDbTrace
 10
105.2090741090839
 20
206.3316666666667
 30
0.0
 11
105.2090741090839
 21
205.4983333333333
 31
0.0
 12
102.7090741090839
 22
205.915
 32
0.0
 13
102.7090741090839
 23
205.915
 33
0.0
  0
TEXT
  5
16EC
330
1E
100
AcDbEntity
  8
MO
100
AcDbText
 10
282.2391789086617
 20
150.7601216670165
 30
0.0
 40
6.0
  1
A　φ
 50
42.50410078103691
  7
0
100
AcDbText
  0
TEXT
  5
16ED
330
1E
100
AcDbEntity
  8
MO
100
AcDbText
 10
126.4267108335865
 20
206.9958586556524
 30
0.0
 40
6.0
  1
B
  7
0
100
AcDbText
  0
SOLID
  5
16F0
330
1E
100
AcDbEntity
  8
SC
100
AcDbTrace
 10
314.0809936573242
 20
177.8960067956261
 30
0.0
 11
314.6440294693203
 21
177.2816493110503
 31
0.0
 12
312.5194391095949
 22
175.8997206173497
 32
0.0
 13
312.5194391095949
 23
175.8997206173497
 33
0.0
  0
TEXT
  5
16F1
330
1E
100
AcDbEntity
  8
SC
100
AcDbText
 10
314.7143205432268
 20
180.4946636542994
 30
0.0
 40
3.0
  1
t（4.5）
 50
42.50410078103691
  7
0
100
AcDbText
  0
LINE
  5
16F2
330
1E
100
AcDbEntity
  8
HO
100
AcDbLine
 10
272.709074109084
 20
200.915
 30
0.0
 11
272.709074109084
 21
77.91499999999999
 31
0.0
  0
LINE
  5
16FB
330
1E
100
AcDbEntity
  8
SC
100
AcDbLine
 10
286.098074109084
 20
189.2039999999999
 30
0.0
 11
300.3323879643763
 21
209.658487842362
 31
0.0
  0
SOLID
  5
1700
330
1E
100
AcDbEntity
  8
SC
100
AcDbTrace
 10
333.7388278874883
 20
163.4685710072211
 30
0.0
 11
332.579074109084
 21
161.2149999999999
 31
0.0
 12
332.9452505998272
 22
163.7228927187457
 32
0.0
 13
332.9452505998272
 23
163.7228927187457
 33
0.0
1001
ACAD
1000
DSTYLE
1002
{
1070
   147
1040
0.09
1070
    40
1040
10.0
1070
    41
1040
0.25
1070
    42
1040
0.1
1070
    43
1040
0.6
1070
    44
1040
0.2
1070
    73
1070
     0
1070
    74
1070
     0
1070
    77
1070
     0
1070
   140
1040
0.3
1070
   172
1070
     1
1070
   179
1070
     1
1070
   271
1070
     0
1070
   272
1070
     0
1070
   279
1070
     2
1070
   340
1005
22
1002
}
  0
LWPOLYLINE
  5
1701
330
1E
100
AcDbEntity
  8
SC
100
AcDbPolyline
 90
        2
 70
     0
 43
0.0
 10
333.3420392436579
 20
163.5957318629834
 10
338.6620000000001
 20
174.144
1001
ACAD
1000
DSTYLE
1002
{
1070
   147
1040
0.09
1070
    40
1040
10.0
1070
    41
1040
0.25
1070
    42
1040
0.1
1070
    43
1040
0.6
1070
    44
1040
0.2
1070
    73
1070
     0
1070
    74
1070
     0
1070
    77
1070
     0
1070
   140
1040
0.3
1070
   172
1070
     1
1070
   179
1070
     1
1070
   271
1070
     0
1070
   272
1070
     0
1070
   279
1070
     2
1070
   340
1005
22
1002
}
  0
SOLID
  5
1706
330
1E
100
AcDbEntity
  8
SC
100
AcDbTrace
 10
208.7480217703676
 20
167.9893067436839
 30
0.0
 11
207.3889414184201
 21
165.8500284289101
 31
0.0
 12
207.9807379735789
 22
168.3144528948683
 32
0.0
 13
207.9807379735789
 23
168.3144528948683
 33
0.0
1001
ACAD
1000
DSTYLE
1002
{
1070
   147
1040
0.09
1070
    40
1040
10.0
1070
    41
1040
0.25
1070
    42
1040
0.1
1070
    43
1040
0.6
1070
    44
1040
0.2
1070
    73
1070
     0
1070
    74
1070
     0
1070
    77
1070
     0
1070
   140
1040
0.3
1070
   172
1070
     1
1070
   179
1070
     1
1070
   271
1070
     0
1070
   272
1070
     0
1070
   279
1070
     2
1070
   340
1005
22
1002
}
  0
LWPOLYLINE
  5
1707
330
1E
100
AcDbEntity
  8
SC
100
AcDbPolyline
 90
        2
 70
     0
 43
0.0
 10
208.3643798719732
 20
168.1518798192761
 10
222.4010150501681
 20
201.3530079333492
1001
ACAD
1000
DSTYLE
1002
{
1070
   147
1040
0.09
1070
    40
1040
10.0
1070
    41
1040
0.25
1070
    42
1040
0.1
1070
    43
1040
0.6
1070
    44
1040
0.2
1070
    73
1070
     0
1070
    74
1070
     0
1070
    77
1070
     0
1070
   140
1040
0.3
1070
   172
1070
     1
1070
   179
1070
     1
1070
   271
1070
     0
1070
   272
1070
     0
1070
   279
1070
     2
1070
   340
1005
22
1002
}
  0
CIRCLE
  5
1710
330
1E
100
AcDbEntity
  8
SC
100
AcDbCircle
 10
286.098074109084
 20
189.2039999999999
 30
0.0
 40
0.4
  0
CIRCLE
  5
1717
330
1E
100
AcDbEntity
  8
SB
100
AcDbCircle
 10
127.7090741090839
 20
164.4508744914389
 30
0.0
 40
5.5
  0
CIRCLE
  5
1718
330
1E
100
AcDbEntity
  8
SB
100
AcDbCircle
 10
127.7090741090839
 20
114.379125508561
 30
0.0
 40
5.5
  0
MTEXT
  5
1758
330
1E
100
AcDbEntity
  8
SC
100
AcDbMText
 10
317.637
 20
21.871
 30
0.0
 40
2.5
 41
0.0
 71
     1
 72
     5
  1

  7
0
 73
     1
 44
1.0
1001
ACAD
1000
MTEXTBEGIN
1070
    73
1070
     1
1070
    44
1040
1.0
1070
    74
1070
     0
1000
MTEXTEND
  0
MTEXT
  5
178F
330
1E
100
AcDbEntity
  8
SC
100
AcDbMText
 10
220.1774508739589
 20
61.30926792682226
 30
0.0
 40
5.0
 41
0.0
 71
     1
 72
     5
  1
加工穴、その他変更部がありましたら図面に書き込んで御利用下さい
  7
0
 73
     1
 44
1.0
1001
ACAD
1000
MTEXTBEGIN
1070
    73
1070
     1
1070
    44
1040
1.0
1070
    74
1070
     0
1000
MTEXTEND
  0
LINE
  5
17DC
330
1E
100
AcDbEntity
  8
0
100
AcDbLine
 10
14.99999999999995
 20
30.70499999999999
 30
0.0
 11
14.99999999999995
 21
50.70499999999999
 31
0.0
  0
LINE
  5
17DE
330
1E
100
AcDbEntity
  8
0
100
AcDbLine
 10
24.99999999999994
 20
50.70499999999999
 30
0.0
 11
24.99999999999994
 21
30.705
 31
0.0
  0
LINE
  5
1806
330
1E
100
AcDbEntity
  8
0
100
AcDbLine
 10
14.99999999999995
 20
50.70499999999999
 30
0.0
 11
49.99999999999994
 21
50.70499999999999
 31
0.0
  0
LINE
  5
1807
330
1E
100
AcDbEntity
  8
0
100
AcDbLine
 10
14.99999999999995
 20
40.70499999999999
 30
0.0
 11
49.99999999999994
 21
40.70499999999999
 31
0.0
  0
LINE
  5
1808
330
1E
100
AcDbEntity
  8
0
100
AcDbLine
 10
14.99999999999995
 20
30.70499999999999
 30
0.0
 11
49.99999999999994
 21
30.70499999999999
 31
0.0
  0
LINE
  5
180A
330
1E
100
AcDbEntity
  8
0
100
AcDbLine
 10
159.9999999999999
 20
50.70499999999999
 30
0.0
 11
281.0
 21
50.70499999999999
 31
0.0
  0
TEXT
  5
1814
330
1E
100
AcDbEntity
  8
MO
100
AcDbText
 10
19.18000058282744
 20
43.87999982484505
 30
0.0
 40
3.499999999999999
  1
A
  7
0
100
AcDbText
  0
TEXT
  5
181A
330
1E
100
AcDbEntity
  8
MO
100
AcDbText
 10
91.28012879570206
 20
43.7553613470516
 30
0.0
 40
3.499999999999999
  1
B
  7
0
100
AcDbText
  0
TEXT
  5
1822
330
1E
100
AcDbEntity
  8
MO
100
AcDbText
 10
32.9032818353157
 20
43.07893657328403
 30
0.0
 40
4.375
  1
内径
  7
0
 72
     1
 11
37.7157818353157
 21
43.07893657328403
 31
0.0
100
AcDbText
  0
TEXT
  5
1829
330
1E
100
AcDbEntity
  8
MO
100
AcDbText
 10
107.5739879080579
 20
43.61824969380626
 30
0.0
 40
4.375
  1
巾
  7
0
 72
     1
 11
109.6156545747246
 21
43.61824969380626
 31
0.0
100
AcDbText
  0
TEXT
  5
1844
330
1E
100
AcDbEntity
  8
MO
100
AcDbText
 10
18.85312879570205
 20
33.67336134705161
 30
0.0
 40
3.499999999999999
  1
C
  7
0
100
AcDbText
  0
TEXT
  5
1845
330
1E
100
AcDbEntity
  8
MO
100
AcDbText
 10
32.25766860327968
 20
33.50686474409736
 30
0.0
 40
4.375
  1
材質
  7
0
 72
     1
 11
36.92433526994634
 21
33.50686474409736
 31
0.0
100
AcDbText
  0
LINE
  5
1847
330
1E
100
AcDbEntity
  8
0
100
AcDbLine
 10
49.99999999999994
 20
50.70499999999999
 30
0.0
 11
49.99999999999994
 21
30.70499999999999
 31
0.0
  0
TEXT
  5
1855
330
1E
100
AcDbEntity
  8
MO
100
AcDbText
 10
91.35312879570202
 20
33.6733613470516
 30
0.0
 40
3.499999999999999
  1
D
  7
0
100
AcDbText
  0
TEXT
  5
1856
330
1E
100
AcDbEntity
  8
MO
100
AcDbText
 10
226.088412769654
 20
33.66682550160349
 30
0.0
 40
4.375
  1
数量
  7
0
 72
     1
 11
230.7550794363206
 21
33.66682550160349
 31
0.0
100
AcDbText
  0
LINE
  5
1870
330
1E
100
AcDbEntity
  8
0
100
AcDbLine
 10
14.99999999999994
 20
30.705
 30
0.0
 11
159.9999999999999
 21
30.70499999999999
 31
0.0
  0
LINE
  5
1871
330
1E
100
AcDbEntity
  8
0
100
AcDbLine
 10
87.49999999999992
 20
50.70499999999999
 30
0.0
 11
87.49999999999992
 21
30.70499999999999
 31
0.0
  0
LINE
  5
1873
330
1E
100
AcDbEntity
  8
0
100
AcDbLine
 10
49.99999999999994
 20
50.70499999999999
 30
0.0
 11
159.9999999999999
 21
50.70499999999999
 31
0.0
  0
LINE
  5
1874
330
1E
100
AcDbEntity
  8
0
100
AcDbLine
 10
49.99999999999994
 20
40.70499999999999
 30
0.0
 11
87.49999999999992
 21
40.70499999999999
 31
0.0
  0
LINE
  5
1875
330
1E
100
AcDbEntity
  8
0
100
AcDbLine
 10
49.99999999999994
 20
30.70499999999999
 30
0.0
 11
159.9999999999999
 21
30.70499999999999
 31
0.0
  0
LINE
  5
1884
330
1E
100
AcDbEntity
  8
0
100
AcDbLine
 10
122.4999999999999
 20
40.705
 30
0.0
 11
159.9999999999999
 21
40.705
 31
0.0
  0
LINE
  5
1888
330
1E
100
AcDbEntity
  8
0
100
AcDbLine
 10
14.99999999999994
 20
30.705
 30
0.0
 11
159.9999999999999
 21
30.70499999999999
 31
0.0
  0
LINE
  5
1889
330
1E
100
AcDbEntity
  8
0
100
AcDbLine
 10
17.99999999999994
 20
20.705
 30
0.0
 11
283.2259999999999
 21
20.70499999999999
 31
0.0
  0
LINE
  5
188A
330
1E
100
AcDbEntity
  8
0
100
AcDbLine
 10
17.99999999999994
 20
10.705
 30
0.0
 11
283.2259999999999
 21
10.70499999999998
 31
0.0
  0
TEXT
  5
1892
330
1E
100
AcDbEntity
  8
MO
100
AcDbText
 10
18.0825030365616
 20
28.37468907764135
 30
0.0
 40
2.799999999999999
  1

  7
0
100
AcDbText
  0
TEXT
  5
1893
330
1E
100
AcDbEntity
  8
MO
100
AcDbText
 10
18.31122710757998
 20
21.78303665633006
 30
0.0
 40
3.5
  1
その他詳細：
  7
0
 72
     1
 11
29.86122710757998
 21
21.78303665633006
 31
0.0
100
AcDbText
  0
LINE
  5
18A2
330
1E
100
AcDbEntity
  8
0
100
AcDbLine
 10
87.49999999999992
 20
40.70499999999999
 30
0.0
 11
159.9999999999999
 21
40.70499999999999
 31
0.0
  0
TEXT
  5
18A3
330
1E
100
AcDbEntity
  8
MO
100
AcDbText
 10
226.322471877816
 20
43.55161148403567
 30
0.0
 40
4.375
  1
容量
  7
0
 72
     1
 11
230.9891385444827
 21
43.55161148403567
 31
0.0
100
AcDbText
  0
TEXT
  5
18A5
330
1E
100
AcDbEntity
  8
MO
100
AcDbText
 10
166.1966333931626
 20
43.47752605931685
 30
0.0
 40
4.375
  1
電圧
  7
0
 72
     1
 11
170.8633000598292
 21
43.47752605931685
 31
0.0
100
AcDbText
  0
LINE
  5
18A9
330
1E
100
AcDbEntity
  8
0
100
AcDbLine
 10
159.9999999999999
 20
50.70499999999999
 30
0.0
 11
159.9999999999999
 21
30.70499999999999
 31
0.0
  0
LINE
  5
18AA
330
1E
100
AcDbEntity
  8
0
100
AcDbLine
 10
97.49999999999994
 20
50.70499999999999
 30
0.0
 11
97.49999999999994
 21
30.70499999999999
 31
0.0
  0
LINE
  5
18AB
330
1E
100
AcDbEntity
  8
0
100
AcDbLine
 10
122.4999999999999
 20
50.70499999999999
 30
0.0
 11
122.4999999999999
 21
30.70499999999999
 31
0.0
  0
TEXT
  5
18B4
330
1E
100
AcDbEntity
  8
MO
100
AcDbText
 10
334.7498393399925
 20
3.380574230302642
 30
0.0
 40
3.5
  1
AISEI  DENNETSU CO., LTD
  7
0
100
AcDbText
  0
TEXT
  5
18BD
330
1E
100
AcDbEntity
  8
MO
100
AcDbText
 10
398.0943211714158
 20
11.06163477656134
 30
0.0
 40
5.0
  1
行
  7
0
 72
     1
 11
400.4276545047491
 21
11.06163477656134
 31
0.0
100
AcDbText
  0
TEXT
  5
18C6
330
1E
100
AcDbEntity
  8
MO
100
AcDbText
 10
80.18549947051658
 20
43.19699993280605
 30
0.0
 40
4.375
  1
φ
  7
0
 72
     1
 11
82.37299947051658
 21
43.19699993280605
 31
0.0
100
AcDbText
  0
TEXT
  5
18CC
330
1E
100
AcDbEntity
  8
MO
100
AcDbText
 10
150.7363375097419
 20
42.75375974362895
 30
0.0
 40
3.0625
  1
mm
  7
0
 72
     1
 11
154.5280041764086
 21
42.75375974362895
 31
0.0
100
AcDbText
  0
TEXT
  5
18D2
330
1E
100
AcDbEntity
  8
MO
100
AcDbText
 10
212.9983333333334
 20
42.769
 30
0.0
 40
4.375
  1
V
  7
0
 72
     1
 11
214.665
 21
42.769
 31
0.0
100
AcDbText
  0
TEXT
  5
18D8
330
1E
100
AcDbEntity
  8
MO
100
AcDbText
 10
273.9431655087571
 20
43.26163213625631
 30
0.0
 40
4.375
  1
W
  7
0
 72
     1
 11
276.0264988420904
 21
43.26163213625631
 31
0.0
100
AcDbText
  0
TEXT
  5
18DE
330
1E
100
AcDbEntity
  8
MO
100
AcDbText
 10
269.9618249953228
 20
32.63244616812445
 30
0.0
 40
4.375
  1
set
  7
0
 72
     1
 11
274.4409916619895
 21
32.63244616812445
 31
0.0
100
AcDbText
  0
TEXT
  5
18E4
330
1E
100
AcDbEntity
  8
MO
100
AcDbText
 10
53.7897995764133
 20
33.91959994624484
 30
0.0
 40
3.5
  1
SUS・ボンデ鋼鈑
  7
0
 72
     1
 11
68.9897995764133
 21
33.91959994624484
 31
0.0
100
AcDbText
  0
TEXT
  5
18EB
330
1E
100
AcDbEntity
  8
MO
100
AcDbText
 10
17.62914196000259
 20
55.01909017515878
 30
0.0
 40
4.550000000000001
  1
※　下記空欄に記入し、FAXしてください
  7
0
100
AcDbText
  0
LINE
  5
18ED
330
1E
100
AcDbEntity
  8
0
100
AcDbLine
 10
3.193615971125439
 20
267.713
 30
0.0
 11
128.2526159711254
 21
267.713
 31
0.0
  0
LINE
  5
18EE
330
1E
100
AcDbEntity
  8
0
100
AcDbLine
 10
3.193615971125439
 20
255.713
 30
0.0
 11
128.2526159711254
 21
255.7129999999999
 31
0.0
  0
LINE
  5
18EF
330
1E
100
AcDbEntity
  8
0
100
AcDbLine
 10
3.193615971125424
 20
243.713
 30
0.0
 11
128.2526159711254
 21
243.7129999999999
 31
0.0
  0
LINE
  5
18F0
330
1E
100
AcDbEntity
  8
0
100
AcDbLine
 10
3.193615971125424
 20
231.713
 30
0.0
 11
128.2526159711254
 21
231.7129999999999
 31
0.0
  0
TEXT
  5
18F7
330
1E
100
AcDbEntity
  8
MO
100
AcDbText
 10
5.047000000000002
 20
269.7195108252091
 30
0.0
 40
4.375
  1
貴社名：
  7
0
 72
     1
 11
14.08866666666667
 21
269.7195108252091
 31
0.0
100
AcDbText
  0
TEXT
  5
18FF
330
1E
100
AcDbEntity
  8
MO
100
AcDbText
 10
4.762445293775542
 20
259.6404968976157
 30
0.0
 40
4.375
  1
部署・担当者名：
  7
0
 72
     1
 11
24.30411196044222
 21
259.6404968976157
 31
0.0
100
AcDbText
  0
TEXT
  5
190B
330
1E
100
AcDbEntity
  8
MO
100
AcDbText
 10
4.244409610399635
 20
235.1743512486338
 30
0.0
 40
4.375
  1
御連絡先 FAX：
  7
0
 72
     1
 11
23.4735762770663
 21
235.1743512486338
 31
0.0
100
AcDbText
  0
TEXT
  5
1918
330
1E
100
AcDbEntity
  8
MO
100
AcDbText
 10
4.271947869785471
 20
247.7453335828736
 30
0.0
 40
4.375
  1
御連絡先 TEL：
  7
0
 72
     1
 11
22.87611453645213
 21
247.7453335828736
 31
0.0
100
AcDbText
  0
LINE
  5
1923
330
1E
100
AcDbEntity
  8
0
370
    40
100
AcDbLine
 10
315.0881625155811
 20
37.35735115744029
 30
0.0
 11
393.0881625155811
 21
37.35735115744029
 31
0.0
  0
LINE
  5
1924
330
1E
100
AcDbEntity
  8
0
370
    40
100
AcDbLine
 10
315.0881625155811
 20
34.7573511574403
 30
0.0
 11
399.5881625155811
 21
34.7573511574403
 31
0.0
  0
LINE
  5
1925
330
1E
100
AcDbEntity
  8
0
370
    40
100
AcDbLine
 10
393.0881625155811
 20
37.35735115744029
 30
0.0
 11
393.0881625155811
 21
39.95735115744029
 31
0.0
  0
LINE
  5
1926
330
1E
100
AcDbEntity
  8
0
370
    40
100
AcDbLine
 10
393.0881625155811
 20
39.95735115744029
 30
0.0
 11
399.5881625155811
 21
34.7573511574403
 31
0.0
  0
LINE
  5
1927
330
1E
100
AcDbEntity
  8
0
370
    40
100
AcDbLine
 10
315.0881625155811
 20
37.35735115744029
 30
0.0
 11
315.0881625155811
 21
34.7573511574403
 31
0.0
  0
TEXT
  5
192E
330
1E
100
AcDbEntity
  8
MO
370
    40
100
AcDbText
 10
324.6798300677355
 20
38.84484239326316
 30
0.0
 40
7.800000000000001
  1
FAX送信方向
  7
0
 72
     1
 11
353.2426872105926
 21
38.84484239326316
 31
0.0
100
AcDbText
  0
TEXT
  5
1943
330
1E
100
AcDbEntity
  8
0
370
    53
100
AcDbText
 10
86.07465571428523
 20
284.1842971226886
 30
0.0
 40
10.0
  1
愛西電熱　見積依頼書・注文書　フォーム
  7
0
100
AcDbText
  0
TEXT
  5
195E
330
1E
100
AcDbEntity
  8
MO
370
    40
100
AcDbText
 10
313.1463329590498
 20
24.83965109775832
 30
0.0
 40
7.800000000000001
  1
0568-25-2241
  7
0
 72
     1
 11
357.1606186733355
 21
24.83965109775832
 31
0.0
100
AcDbText
  0
LINE
  5
1965
330
1E
100
AcDbEntity
  8
SC
100
AcDbLine
 10
338.6620000000001
 20
174.144
 30
0.0
 11
382.183
 21
174.144
 31
0.0
  0
TEXT
  5
196C
330
1E
100
AcDbEntity
  8
MO
100
AcDbText
 10
343.230761013448
 20
174.4728347002007
 30
0.0
 40
3.599999999999999
  1
キャップボルト
  7
0
100
AcDbText
  0
LINE
  5
196E
330
1E
100
AcDbEntity
  8
SC
100
AcDbLine
 10
300.3323879643763
 20
209.658487842362
 30
0.0
 11
344.986
 21
209.658487842362
 31
0.0
  0
TEXT
  5
1974
330
1E
100
AcDbEntity
  8
MO
100
AcDbText
 10
302.686521045054
 20
210.5392073178638
 30
0.0
 40
3.599999999999999
  1
ヒーター（C）
  7
0
100
AcDbText
  0
LINE
  5
1980
330
1E
100
AcDbEntity
  8
SC
100
AcDbLine
 10
222.4010150501681
 20
201.3530079333492
 30
0.0
 11
255.754
 21
201.3530079333492
 31
0.0
  0
TEXT
  5
1986
330
1E
100
AcDbEntity
  8
MO
100
AcDbText
 10
225.2679415172004
 20
201.7780082215291
 30
0.0
 40
3.599999999999999
  1
ターミナル端子
  7
0
100
AcDbText
  0
TEXT
  5
19B2
330
1E
100
AcDbEntity
  8
MO
100
AcDbText
 10
244.5413865982511
 20
196.863408060654
 30
0.0
 40
3.599999999999999
  1
（D）
  7
0
100
AcDbText
  0
TEXT
  5
19BB
330
1E
100
AcDbEntity
  8
MO
100
AcDbText
 10
314.7620005761163
 20
204.5879996578541
 30
0.0
 40
3.599999999999999
  1
ヒーターバンド
  7
0
100
AcDbText
  0
LINE
  5
19C2
330
1E
100
AcDbEntity
  8
SC
370
    40
100
AcDbLine
 10
214.363
 20
245.664
 30
0.0
 11
368.536
 21
245.664
 31
0.0
  0
TEXT
  5
19F0
330
1E
100
AcDbEntity
  8
MO
100
AcDbText
 10
104.7576686032796
 20
33.50686474409736
 30
0.0
 40
4.375
  1
端子
  7
0
 72
     1
 11
109.4243352699463
 21
33.50686474409736
 31
0.0
100
AcDbText
  0
TEXT
  5
19F7
330
1E
100
AcDbEntity
  8
MO
100
AcDbText
 10
128.35646624308
 20
33.91959994624483
 30
0.0
 40
3.5
  1
M4　・　M5
  7
0
 72
     1
 11
141.4897995764133
 21
33.91959994624483
 31
0.0
100
AcDbText
  0
LINE
  5
19F9
330
1E
100
AcDbEntity
  8
0
100
AcDbLine
 10
160.9999999999999
 20
50.70499999999999
 30
0.0
 11
160.9999999999999
 21
30.70499999999999
 31
0.0
  0
LINE
  5
1A00
330
1E
100
AcDbEntity
  8
0
100
AcDbLine
 10
159.9999999999999
 20
40.705
 30
0.0
 11
280.9999999999999
 21
40.70499999999983
 31
0.0
  0
LINE
  5
1A06
330
1E
100
AcDbEntity
  8
0
100
AcDbLine
 10
159.9999999999999
 20
30.70499999999999
 30
0.0
 11
280.9999999999999
 21
30.70499999999997
 31
0.0
  0
LINE
  5
1A08
330
1E
100
AcDbEntity
  8
0
100
AcDbLine
 10
180.9999999999999
 20
50.70499999999999
 30
0.0
 11
180.9999999999999
 21
30.70499999999999
 31
0.0
  0
LINE
  5
1A09
330
1E
100
AcDbEntity
  8
0
100
AcDbLine
 10
220.9999999999999
 20
50.70499999999999
 30
0.0
 11
220.9999999999999
 21
30.70499999999998
 31
0.0
  0
LINE
  5
1A12
330
1E
100
AcDbEntity
  8
0
100
AcDbLine
 10
281.0
 20
50.70499999999999
 30
0.0
 11
280.9999999999999
 21
30.70499999999997
 31
0.0
  0
LINE
  5
1A13
330
1E
100
AcDbEntity
  8
0
100
AcDbLine
 10
241.0
 20
50.70499999999999
 30
0.0
 11
241.0
 21
30.70499999999999
 31
0.0
  0
LINE
  5
1A14
330
1E
100
AcDbEntity
  8
0
100
AcDbLine
 10
220.9999999999999
 20
50.70499999999999
 30
0.0
 11
220.9999999999999
 21
30.70499999999999
 31
0.0
  0
TEXT
  5
1A20
330
1E
100
AcDbEntity
  8
MO
100
AcDbText
 10
163.5716333931626
 20
33.47752605931685
 30
0.0
 40
4.375
  1
穴加工
  7
0
 72
     1
 11
170.8633000598292
 21
33.47752605931685
 31
0.0
100
AcDbText
  0
TEXT
  5
1A26
330
1E
100
AcDbEntity
  8
MO
100
AcDbText
 10
188.5296817384609
 20
33.47752605931685
 30
0.0
 40
4.375
  1
有　・　無
  7
0
 72
     1
 11
201.0713484051275
 21
33.47752605931685
 31
0.0
100
AcDbText
  0
ENDSEC
  0
SECTION
  2
OBJECTS
  0
DICTIONARY
  5
C
330
0
100
AcDbDictionary
281
     1
  3
ACAD_COLOR
350
1793
  3
ACAD_GROUP
350
D
  3
ACAD_LAYOUT
350
19
  3
ACAD_MATERIAL
350
1792
  3
ACAD_MLINESTYLE
350
16
  3
ACAD_PLOTSETTINGS
350
18
  3
ACAD_PLOTSTYLENAME
350
E
  3
ACAD_TABLESTYLE
350
17A5
  3
ACDBHEADERROUNDTRIPXREC
350
1A43
  3
AcDbVariableDictionary
350
17B5
  0
DICTIONARY
  5
1793
102
{ACAD_REACTORS
330
C
102
}
330
C
100
AcDbDictionary
281
     1
  0
DICTIONARY
  5
D
102
{ACAD_REACTORS
330
C
102
}
330
C
100
AcDbDictionary
281
     1
  0
DICTIONARY
  5
19
102
{ACAD_REACTORS
330
C
102
}
330
C
100
AcDbDictionary
281
     1
  3
Model
350
21
  3
ﾚｲｱｳﾄ1
350
1D
  0
DICTIONARY
  5
1792
102
{ACAD_REACTORS
330
C
102
}
330
C
100
AcDbDictionary
281
     1
  0
DICTIONARY
  5
16
102
{ACAD_REACTORS
330
C
102
}
330
C
100
AcDbDictionary
281
     1
  3
Standard
350
17
  0
DICTIONARY
  5
18
102
{ACAD_REACTORS
330
C
102
}
330
C
100
AcDbDictionary
281
     1
  0
ACDBDICTIONARYWDFLT
  5
E
102
{ACAD_REACTORS
330
C
102
}
330
C
100
AcDbDictionary
281
     1
  3
Normal
350
F
100
AcDbDictionaryWithDefault
340
F
  0
DICTIONARY
  5
17A5
102
{ACAD_REACTORS
330
C
102
}
330
C
100
AcDbDictionary
281
     1
  3
Standard
350
17A6
  0
DICTIONARY
  5
1A43
102
{ACAD_REACTORS
330
C
102
}
330
C
100
AcDbDictionary
281
     1
  3
COLORDICT
350
1A45
  3
MATERIALDICT
350
1A44
  0
DICTIONARY
  5
17B5
102
{ACAD_REACTORS
330
C
102
}
330
C
100
AcDbDictionary
281
     1
  3
CTABLESTYLE
350
17B6
  3
DIMASSOC
350
1A40
  3
PROJECTNAME
350
1A41
  0
LAYOUT
  5
21
102
{ACAD_XDICTIONARY
360
1A48
102
}
102
{ACAD_REACTORS
330
19
102
}
330
19
100
AcDbPlotSettings
  1

  2
\\AISEI\FX DocuPrint 205
  4
A4
  6
HYOU
 40
4.900083065032958
 41
4.900057315826416
 42
4.90008544921875
 43
4.90008544921875
 44
210.0156707763672
 45
297.0106506347656
 46
-1.0
 47
10.0
 48
0.0
 49
0.0
140
0.0
141
0.0
142
1.0
143
1.483401617978499
 70
 11952
 72
     1
 73
     1
 74
     2
  7
monochrome.ctb
 75
     0
147
0.6741262702428131
148
0.0
149
0.0
100
AcDbLayout
  1
Model
 70
     1
 71
     0
 10
0.0
 20
0.0
 11
12.0
 21
9.0
 12
0.0
 22
0.0
 32
0.0
 14
0.0
 24
0.0
 34
0.0
 15
0.0
 25
0.0
 35
0.0
146
0.0
 13
0.0
 23
0.0
 33
0.0
 16
1.0
 26
0.0
 36
0.0
 17
0.0
 27
1.0
 37
0.0
 76
     0
330
1E
1001
ACAD_PSEXT
1000
FX DocuPrint 205
1000
FX DocuPrint 205
1000
USB001
1000

1070
     0
  0
LAYOUT
  5
1D
102
{ACAD_XDICTIONARY
360
1A46
102
}
102
{ACAD_REACTORS
330
19
102
}
330
19
100
AcDbPlotSettings
  1

  2
EPSON LP-1500S
  4

  6

 40
0.0
 41
0.0
 42
0.0
 43
0.0
 44
0.0
 45
0.0
 46
0.0
 47
0.0
 48
0.0
 49
0.0
140
0.0
141
0.0
142
1.0
143
1.0
 70
   688
 72
     0
 73
     0
 74
     5
  7
monochrome.ctb
 75
    16
147
1.0
148
0.0
149
0.0
100
AcDbLayout
  1
ﾚｲｱｳﾄ1
 70
     0
 71
     1
 10
0.0
 20
0.0
 11
12.0
 21
9.0
 12
0.0
 22
0.0
 32
0.0
 14
1.000000000000000E+20
 24
1.000000000000000E+20
 34
1.000000000000000E+20
 15
-1.000000000000000E+20
 25
-1.000000000000000E+20
 35
-1.000000000000000E+20
146
0.0
 13
0.0
 23
0.0
 33
0.0
 16
1.0
 26
0.0
 36
0.0
 17
0.0
 27
1.0
 37
0.0
 76
     0
330
1A
  0
MLINESTYLE
  5
17
102
{ACAD_REACTORS
330
16
102
}
330
16
100
AcDbMlineStyle
  2
STANDARD
 70
     0
  3

 62
   256
 51
90.0
 52
90.0
 71
     2
 49
0.5
 62
   256
  6
BYLAYER
 49
-0.5
 62
   256
  6
BYLAYER
  0
ACDBPLACEHOLDER
  5
F
102
{ACAD_REACTORS
330
E
102
}
330
E
  0
ACAD_PROXY_OBJECT
  5
17A6
102
{ACAD_REACTORS
330
17A5
102
}
330
17A5
100
AcDbProxyObject
 90
      499
 91
      503
 95
       25
 70
     0
 93
     1841
310
4214DD185B99185C9928B81E85EB51B8AE3F2E07A17AD46E2B8FC02B5E8DC0F42B1CFD028000000C1008070000C3001FDFF8000000C1003FBFF000000182007F7FE00000030400FEFFC00000060801FDFF8000000C1003FBFF00000018200000000000000681FA0B0000001820100E000186003FBFF000000182007F7FE000
310
00030400FEFFC00000060801FDFF8000000C1003FBFF000000182007F7FE000000304000AD7A3703D0AC73F4160000003040201C00030C007F7FE00000030400FEFFC00000060801FDFF8000000C1003FBFF000000182007F7FE00000030400FEFFC000000608000
340
11
340
11
340
11
 94
        0
1001
ACAD
1000
AcRTDxfName
1000
TABLESTYLE
  0
XRECORD
  5
1A45
102
{ACAD_REACTORS
330
1A43
102
}
330
1A43
100
AcDbXrecord
280
     1
340
1793
  0
XRECORD
  5
1A44
102
{ACAD_REACTORS
330
1A43
102
}
330
1A43
100
AcDbXrecord
280
     1
340
1792
  0
DICTIONARYVAR
  5
17B6
102
{ACAD_REACTORS
330
17B5
102
}
330
17B5
100
DictionaryVariables
280
     0
  1
STANDARD
  0
DICTIONARYVAR
  5
1A40
102
{ACAD_REACTORS
330
17B5
102
}
330
17B5
100
DictionaryVariables
280
     0
  1
1
  0
DICTIONARYVAR
  5
1A41
102
{ACAD_REACTORS
330
17B5
102
}
330
17B5
100
DictionaryVariables
280
     0
  1

  0
DICTIONARY
  5
1A48
330
21
100
AcDbDictionary
280
     1
281
     1
  3
ACAD_XREC_ROUNDTRIP
360
1A49
  0
DICTIONARY
  5
1A46
330
1D
100
AcDbDictionary
280
     1
281
     1
  3
ACAD_XREC_ROUNDTRIP
360
1A47
  0
XRECORD
  5
1A49
102
{ACAD_REACTORS
330
1A48
102
}
330
1A48
100
AcDbXrecord
280
     1
102
SHADEPLOT
 70
     0
102
SHADEPLOTRESLEVEL
 70
     2
102
SHADEPLOTCUSTOMDPI
 70
   300
  0
XRECORD
  5
1A47
102
{ACAD_REACTORS
330
1A46
102
}
330
1A46
100
AcDbXrecord
280
     1
102
SHADEPLOT
 70
     0
102
SHADEPLOTRESLEVEL
 70
     2
102
SHADEPLOTCUSTOMDPI
 70
   300
  0
ENDSEC
  0
EOF
