  0
SECTION
  2
HEADER
  9
$ACADVER
  1
AC1015
  9
$ACADMAINTVER
 70
    20
  9
$DWGCODEPAGE
  3
ANSI_932
  9
$INSBASE
 10
0.0
 20
0.0
 30
0.0
  9
$EXTMIN
 10
3.191529301916716
 20
2.71005318489631
 30
-0.0015258207003583
  9
$EXTMAX
 10
402.3889169730118
 20
294.199310990981
 30
0.0000000349246037
  9
$LIMMIN
 10
0.0
 20
0.0
  9
$LIMMAX
 10
420.0
 20
297.0
  9
$ORTHOMODE
 70
     0
  9
$REGENMODE
 70
     1
  9
$FILLMODE
 70
     1
  9
$QTEXTMODE
 70
     0
  9
$MIRRTEXT
 70
     1
  9
$LTSCALE
 40
12.0
  9
$ATTMODE
 70
     1
  9
$TEXTSIZE
 40
10.0
  9
$TRACEWID
 40
0.3
  9
$TEXTSTYLE
  7
0
  9
$CLAYER
  8
SC
  9
$CELTYPE
  6
ByLayer
  9
$CECOLOR
 62
   256
  9
$CELTSCALE
 40
1.0
  9
$DISPSILH
 70
     0
  9
$DIMSCALE
 40
1.0
  9
$DIMASZ
 40
2.0
  9
$DIMEXO
 40
0.0625
  9
$DIMDLI
 40
0.38
  9
$DIMRND
 40
0.0
  9
$DIMDLE
 40
0.0
  9
$DIMEXE
 40
0.18
  9
$DIMTP
 40
0.0
  9
$DIMTM
 40
0.0
  9
$DIMTXT
 40
2.0
  9
$DIMCEN
 40
0.09
  9
$DIMTSZ
 40
0.0
  9
$DIMTOL
 70
     0
  9
$DIMLIM
 70
     0
  9
$DIMTIH
 70
     1
  9
$DIMTOH
 70
     1
  9
$DIMSE1
 70
     0
  9
$DIMSE2
 70
     0
  9
$DIMTAD
 70
     0
  9
$DIMZIN
 70
     0
  9
$DIMBLK
  1

  9
$DIMASO
 70
     1
  9
$DIMSHO
 70
     0
  9
$DIMPOST
  1

  9
$DIMAPOST
  1

  9
$DIMALT
 70
     0
  9
$DIMALTD
 70
     2
  9
$DIMALTF
 40
25.4
  9
$DIMLFAC
 40
1.0
  9
$DIMTOFL
 70
     0
  9
$DIMTVP
 40
0.0
  9
$DIMTIX
 70
     0
  9
$DIMSOXD
 70
     0
  9
$DIMSAH
 70
     0
  9
$DIMBLK1
  1

  9
$DIMBLK2
  1

  9
$DIMSTYLE
  2
Standard
  9
$DIMCLRD
 70
     0
  9
$DIMCLRE
 70
     0
  9
$DIMCLRT
 70
     0
  9
$DIMTFAC
 40
1.0
  9
$DIMGAP
 40
0.09
  9
$DIMJUST
 70
     0
  9
$DIMSD1
 70
     0
  9
$DIMSD2
 70
     0
  9
$DIMTOLJ
 70
     1
  9
$DIMTZIN
 70
     0
  9
$DIMALTZ
 70
     0
  9
$DIMALTTZ
 70
     0
  9
$DIMUPT
 70
     0
  9
$DIMDEC
 70
     4
  9
$DIMTDEC
 70
     4
  9
$DIMALTU
 70
     2
  9
$DIMALTTD
 70
     2
  9
$DIMTXSTY
  7
STANDARD
  9
$DIMAUNIT
 70
     0
  9
$DIMADEC
 70
     0
  9
$DIMALTRND
 40
0.0
  9
$DIMAZIN
 70
     0
  9
$DIMDSEP
 70
    46
  9
$DIMATFIT
 70
     0
  9
$DIMFRAC
 70
     0
  9
$DIMLDRBLK
  1

  9
$DIMLUNIT
 70
     2
  9
$DIMLWD
 70
    -2
  9
$DIMLWE
 70
    -2
  9
$DIMTMOVE
 70
     0
  9
$LUNITS
 70
     2
  9
$LUPREC
 70
     4
  9
$SKETCHINC
 40
0.1
  9
$FILLETRAD
 40
0.0
  9
$AUNITS
 70
     0
  9
$AUPREC
 70
     1
  9
$MENU
  1
ACAD
  9
$ELEVATION
 40
0.0
  9
$PELEVATION
 40
0.0
  9
$THICKNESS
 40
0.0
  9
$LIMCHECK
 70
     0
  9
$CHAMFERA
 40
0.0
  9
$CHAMFERB
 40
0.0
  9
$CHAMFERC
 40
0.0
  9
$CHAMFERD
 40
0.0
  9
$SKPOLY
 70
     0
  9
$TDCREATE
 40
2450808.702418171
  9
$TDUCREATE
 40
2450808.327418172
  9
$TDUPDATE
 40
2456199.661187604
  9
$TDUUPDATE
 40
2456199.286187604
  9
$TDINDWG
 40
1.7159793981
  9
$TDUSRTIMER
 40
1.7159793981
  9
$USRTIMER
 70
     1
  9
$ANGBASE
 50
0.0
  9
$ANGDIR
 70
     0
  9
$PDMODE
 70
     0
  9
$PDSIZE
 40
0.0
  9
$PLINEWID
 40
1.0
  9
$SPLFRAME
 70
     0
  9
$SPLINETYPE
 70
     6
  9
$SPLINESEGS
 70
     8
  9
$HANDSEED
  5
23E7
  9
$SURFTAB1
 70
     6
  9
$SURFTAB2
 70
     6
  9
$SURFTYPE
 70
     6
  9
$SURFU
 70
     6
  9
$SURFV
 70
     6
  9
$UCSBASE
  2

  9
$UCSNAME
  2

  9
$UCSORG
 10
0.0
 20
0.0
 30
0.0
  9
$UCSXDIR
 10
1.0
 20
0.0
 30
0.0
  9
$UCSYDIR
 10
0.0
 20
1.0
 30
0.0
  9
$UCSORTHOREF
  2

  9
$UCSORTHOVIEW
 70
     0
  9
$UCSORGTOP
 10
0.0
 20
0.0
 30
0.0
  9
$UCSORGBOTTOM
 10
0.0
 20
0.0
 30
0.0
  9
$UCSORGLEFT
 10
0.0
 20
0.0
 30
0.0
  9
$UCSORGRIGHT
 10
0.0
 20
0.0
 30
0.0
  9
$UCSORGFRONT
 10
0.0
 20
0.0
 30
0.0
  9
$UCSORGBACK
 10
0.0
 20
0.0
 30
0.0
  9
$PUCSBASE
  2

  9
$PUCSNAME
  2

  9
$PUCSORG
 10
0.0
 20
0.0
 30
0.0
  9
$PUCSXDIR
 10
1.0
 20
0.0
 30
0.0
  9
$PUCSYDIR
 10
0.0
 20
1.0
 30
0.0
  9
$PUCSORTHOREF
  2

  9
$PUCSORTHOVIEW
 70
     0
  9
$PUCSORGTOP
 10
0.0
 20
0.0
 30
0.0
  9
$PUCSORGBOTTOM
 10
0.0
 20
0.0
 30
0.0
  9
$PUCSORGLEFT
 10
0.0
 20
0.0
 30
0.0
  9
$PUCSORGRIGHT
 10
0.0
 20
0.0
 30
0.0
  9
$PUCSORGFRONT
 10
0.0
 20
0.0
 30
0.0
  9
$PUCSORGBACK
 10
0.0
 20
0.0
 30
0.0
  9
$USERI1
 70
     0
  9
$USERI2
 70
     0
  9
$USERI3
 70
     0
  9
$USERI4
 70
     0
  9
$USERI5
 70
     0
  9
$USERR1
 40
0.0
  9
$USERR2
 40
0.0
  9
$USERR3
 40
0.0
  9
$USERR4
 40
0.0
  9
$USERR5
 40
0.0
  9
$WORLDVIEW
 70
     1
  9
$SHADEDGE
 70
     3
  9
$SHADEDIF
 70
    70
  9
$TILEMODE
 70
     1
  9
$MAXACTVP
 70
    16
  9
$PINSBASE
 10
0.0
 20
0.0
 30
0.0
  9
$PLIMCHECK
 70
     0
  9
$PEXTMIN
 10
1.000000000000000E+20
 20
1.000000000000000E+20
 30
1.000000000000000E+20
  9
$PEXTMAX
 10
-1.000000000000000E+20
 20
-1.000000000000000E+20
 30
-1.000000000000000E+20
  9
$PLIMMIN
 10
0.0
 20
0.0
  9
$PLIMMAX
 10
12.0
 20
9.0
  9
$UNITMODE
 70
     0
  9
$VISRETAIN
 70
     0
  9
$PLINEGEN
 70
     0
  9
$PSLTSCALE
 70
     0
  9
$TREEDEPTH
 70
  3020
  9
$CMLSTYLE
  2
Standard
  9
$CMLJUST
 70
     0
  9
$CMLSCALE
 40
1.0
  9
$PROXYGRAPHICS
 70
     1
  9
$MEASUREMENT
 70
     0
  9
$CELWEIGHT
370
    -1
  9
$ENDCAPS
280
     0
  9
$JOINSTYLE
280
     0
  9
$LWDISPLAY
290
     0
  9
$INSUNITS
 70
     0
  9
$HYPERLINKBASE
  1

  9
$STYLESHEET
  1
monochrome.ctb
  9
$XEDIT
290
     1
  9
$CEPSNTYPE
380
     0
  9
$PSTYLEMODE
290
     1
  9
$FINGERPRINTGUID
  2
{51BC8342-4694-11D4-A1F9-0060672295C7}
  9
$VERSIONGUID
  2
{4AA317A5-8C3D-4DAB-91F9-8E97909BF98A}
  9
$EXTNAMES
290
     1
  9
$PSVPSCALE
 40
0.0
  9
$OLESTARTUP
290
     0
  0
ENDSEC
  0
SECTION
  2
CLASSES
  0
CLASS
  1
ACDBDICTIONARYWDFLT
  2
AcDbDictionaryWithDefault
  3
ObjectDBX Classes
 90
        0
280
     0
281
     0
  0
CLASS
  1
ACDBPLACEHOLDER
  2
AcDbPlaceHolder
  3
ObjectDBX Classes
 90
        0
280
     0
281
     0
  0
CLASS
  1
LAYOUT
  2
AcDbLayout
  3
ObjectDBX Classes
 90
        0
280
     0
281
     0
  0
CLASS
  1
TABLESTYLE
  2
AcDbTableStyle
  3
ObjectDBX Classes
 90
     2047
280
     0
281
     0
  0
CLASS
  1
DICTIONARYVAR
  2
AcDbDictionaryVar
  3
ObjectDBX Classes
 90
        0
280
     0
281
     0
  0
ENDSEC
  0
SECTION
  2
TABLES
  0
TABLE
  2
VPORT
  5
8
330
0
100
AcDbSymbolTable
 70
    12
  0
VPORT
  5
23DF
330
8
100
AcDbSymbolTableRecord
100
AcDbViewportTableRecord
  2
*Active
 70
     0
 10
0.0
 20
0.0
 11
1.0
 21
1.0
 12
210.0
 22
148.5
 13
0.0
 23
0.0
 14
0.001
 24
0.001
 15
10.0
 25
10.0
 16
0.0
 26
0.0
 36
1.0
 17
0.0
 27
0.0
 37
0.0
 40
300.6
 41
2.417004048582995
 42
50.0
 43
0.0
 44
0.0
 50
0.0
 51
0.0
 71
     0
 72
  2000
 73
     1
 74
     0
 75
     1
 76
     1
 77
     0
 78
     2
281
     0
 65
     1
110
0.0
120
0.0
130
0.0
111
1.0
121
0.0
131
0.0
112
0.0
122
1.0
132
0.0
 79
     0
146
0.0
  0
ENDTAB
  0
TABLE
  2
LTYPE
  5
5
330
0
100
AcDbSymbolTable
 70
     3
  0
LTYPE
  5
13
330
5
100
AcDbSymbolTableRecord
100
AcDbLinetypeTableRecord
  2
ByBlock
 70
     0
  3

 72
    65
 73
     0
 40
0.0
  0
LTYPE
  5
14
330
5
100
AcDbSymbolTableRecord
100
AcDbLinetypeTableRecord
  2
ByLayer
 70
     0
  3

 72
    65
 73
     0
 40
0.0
  0
LTYPE
  5
15
330
5
100
AcDbSymbolTableRecord
100
AcDbLinetypeTableRecord
  2
CONTINUOUS
 70
     0
  3
実線
 72
    65
 73
     0
 40
0.0
  0
LTYPE
  5
23
330
5
100
AcDbSymbolTableRecord
100
AcDbLinetypeTableRecord
  2
CENTER
 70
     0
  3
____ _ ____ _ ____ _ ____ _ ____ _ ____ _ ____
 72
    65
 73
     4
 40
2.0
 49
1.25
 74
     0
 49
-0.25
 74
     0
 49
0.25
 74
     0
 49
-0.25
 74
     0
  0
LTYPE
  5
24
330
5
100
AcDbSymbolTableRecord
100
AcDbLinetypeTableRecord
  2
HIDDEN
 70
     0
  3
_ _ _ _ _ _ _ _ _ _ _ _ _ _ _ _ _ _ _ _ _ _ _
 72
    65
 73
     2
 40
0.375
 49
0.25
 74
     0
 49
-0.125
 74
     0
  0
ENDTAB
  0
TABLE
  2
LAYER
  5
2
330
0
100
AcDbSymbolTable
 70
     9
  0
LAYER
  5
10
330
2
100
AcDbSymbolTableRecord
100
AcDbLayerTableRecord
  2
0
 70
     0
 62
     7
  6
CONTINUOUS
370
    -3
390
F
  0
LAYER
  5
28
330
2
100
AcDbSymbolTableRecord
100
AcDbLayerTableRecord
  2
HO
 70
     0
 62
     2
  6
CENTER
370
    13
390
F
  0
LAYER
  5
29
330
2
100
AcDbSymbolTableRecord
100
AcDbLayerTableRecord
  2
HA
 70
     0
 62
     4
  6
HIDDEN
370
    13
390
F
  0
LAYER
  5
2A
330
2
100
AcDbSymbolTableRecord
100
AcDbLayerTableRecord
  2
SB
 70
     0
 62
     1
  6
CONTINUOUS
370
    20
390
F
  0
LAYER
  5
2B
330
2
100
AcDbSymbolTableRecord
100
AcDbLayerTableRecord
  2
SA
 70
     0
 62
     7
  6
CONTINUOUS
370
    30
390
F
  0
LAYER
  5
2C
330
2
100
AcDbSymbolTableRecord
100
AcDbLayerTableRecord
  2
MO
 70
     0
 62
     3
  6
CONTINUOUS
370
    20
390
F
  0
LAYER
  5
2D
330
2
100
AcDbSymbolTableRecord
100
AcDbLayerTableRecord
  2
SC
 70
     0
 62
     6
  6
CONTINUOUS
370
    13
390
F
  0
LAYER
  5
2E
330
2
100
AcDbSymbolTableRecord
100
AcDbLayerTableRecord
  2
DEFPOINTS
 70
     0
 62
     7
  6
CONTINUOUS
290
     0
370
    -3
390
F
  0
LAYER
  5
1397
330
2
100
AcDbSymbolTableRecord
100
AcDbLayerTableRecord
  2
sd
 70
     0
 62
     1
  6
CONTINUOUS
370
    20
390
F
  0
ENDTAB
  0
TABLE
  2
STYLE
  5
3
330
0
100
AcDbSymbolTable
 70
     2
  0
STYLE
  5
11
330
3
100
AcDbSymbolTableRecord
100
AcDbTextStyleTableRecord
  2
STANDARD
 70
     0
 40
0.0
 41
1.0
 50
0.0
 71
     0
 42
0.2
  3
TXT
  4

  0
STYLE
  5
22
330
3
100
AcDbSymbolTableRecord
100
AcDbTextStyleTableRecord
  2
0
 70
     0
 40
0.0
 41
1.0
 50
0.0
 71
     0
 42
10.0
  3
SIMPLEX
  4
BIGFONT
  0
ENDTAB
  0
TABLE
  2
VIEW
  5
6
330
0
100
AcDbSymbolTable
 70
     1
  0
VIEW
  5
25
330
6
100
AcDbSymbolTableRecord
100
AcDbViewTableRecord
  2
HYOU
 70
     0
 40
162.519
 10
329.94
 20
84.5855
 41
158.206
 11
0.0
 21
0.0
 31
1.0
 12
0.0
 22
0.0
 32
0.0
 42
0.0
 43
0.0
 44
0.0
 50
0.0
 71
     0
281
     0
 72
     0
  0
ENDTAB
  0
TABLE
  2
UCS
  5
7
330
0
100
AcDbSymbolTable
 70
     0
  0
ENDTAB
  0
TABLE
  2
APPID
  5
9
330
0
100
AcDbSymbolTable
 70
     2
  0
APPID
  5
12
330
9
100
AcDbSymbolTableRecord
100
AcDbRegAppTableRecord
  2
ACAD
 70
     0
  0
APPID
  5
17B3
330
9
100
AcDbSymbolTableRecord
100
AcDbRegAppTableRecord
  2
ACAD_PSEXT
 70
     0
  0
ENDTAB
  0
TABLE
  2
DIMSTYLE
  5
A
330
0
100
AcDbSymbolTable
 70
     1
100
AcDbDimStyleTable
 71
     1
340
3C3
  0
DIMSTYLE
105
3C3
102
{ACAD_REACTORS
330
1FD9
330
22F4
102
}
330
A
100
AcDbSymbolTableRecord
100
AcDbDimStyleTableRecord
  2
Standard
 70
     0
 41
2.0
140
2.0
289
     0
340
11
  0
ENDTAB
  0
TABLE
  2
BLOCK_RECORD
  5
1
330
0
100
AcDbSymbolTable
 70
    14
  0
BLOCK_RECORD
  5
1E
330
1
100
AcDbSymbolTableRecord
100
AcDbBlockTableRecord
  2
*Model_Space
340
21
  0
BLOCK_RECORD
  5
1A
330
1
100
AcDbSymbolTableRecord
100
AcDbBlockTableRecord
  2
*Paper_Space
340
1D
  0
BLOCK_RECORD
  5
1C97
330
1
100
AcDbSymbolTableRecord
100
AcDbBlockTableRecord
  2
_Origin
340
0
  0
BLOCK_RECORD
  5
2082
330
1
100
AcDbSymbolTableRecord
100
AcDbBlockTableRecord
  2
*D1
340
0
  0
BLOCK_RECORD
  5
208E
330
1
100
AcDbSymbolTableRecord
100
AcDbBlockTableRecord
  2
*D2
340
0
  0
BLOCK_RECORD
  5
2099
330
1
100
AcDbSymbolTableRecord
100
AcDbBlockTableRecord
  2
*D3
340
0
  0
BLOCK_RECORD
  5
221D
330
1
100
AcDbSymbolTableRecord
100
AcDbBlockTableRecord
  2
*D5
340
0
  0
BLOCK_RECORD
  5
222A
330
1
100
AcDbSymbolTableRecord
100
AcDbBlockTableRecord
  2
*D6
340
0
  0
BLOCK_RECORD
  5
2235
330
1
100
AcDbSymbolTableRecord
100
AcDbBlockTableRecord
  2
*D7
340
0
  0
ENDTAB
  0
ENDSEC
  0
SECTION
  2
BLOCKS
  0
BLOCK
  5
31
330
1E
100
AcDbEntity
  8
0
100
AcDbBlockBegin
  2
*Model_Space
 70
     0
 10
0.0
 20
0.0
 30
0.0
  3
*Model_Space
  1

  0
ENDBLK
  5
32
330
1E
100
AcDbEntity
  8
0
100
AcDbBlockEnd
  0
BLOCK
  5
2F
330
1A
100
AcDbEntity
 67
     1
  8
0
100
AcDbBlockBegin
  2
*Paper_Space
 70
     0
 10
0.0
 20
0.0
 30
0.0
  3
*Paper_Space
  1

  0
ENDBLK
  5
30
330
1A
100
AcDbEntity
 67
     1
  8
0
100
AcDbBlockEnd
  0
BLOCK
  5
1C98
330
1C97
100
AcDbEntity
  8
0
100
AcDbBlockBegin
  2
_Origin
 70
     0
 10
0.0
 20
0.0
 30
0.0
  3
_Origin
  1

  0
CIRCLE
  5
1C99
330
1C97
100
AcDbEntity
  8
0
  6
ByBlock
 62
     0
370
    -2
100
AcDbCircle
 10
0.0
 20
0.0
 30
0.0
 40
0.5
  0
LINE
  5
1C9A
330
1C97
100
AcDbEntity
  8
0
  6
ByBlock
 62
     0
370
    -2
100
AcDbLine
 10
0.0
 20
0.0
 30
0.0
 11
-1.0
 21
0.0
 31
0.0
  0
ENDBLK
  5
1C9B
330
1C97
100
AcDbEntity
  8
0
100
AcDbBlockEnd
  0
BLOCK
  5
2083
330
2082
100
AcDbEntity
  8
0
100
AcDbBlockBegin
  2
*D1
 70
     1
 10
0.0
 20
0.0
 30
0.0
  3
*D1
  1

  0
LINE
  5
2084
330
2082
100
AcDbEntity
  8
SC
 62
     0
370
    -2
100
AcDbLine
 10
334.1755
 20
142.489
 30
0.0
 11
328.9650005407455
 21
142.489
 31
0.0
  0
LINE
  5
2085
330
2082
100
AcDbEntity
  8
SC
 62
     0
370
    -2
100
AcDbLine
 10
346.8075005407454
 20
163.779
 30
0.0
 11
328.9650005407455
 21
163.779
 31
0.0
  0
LINE
  5
2086
330
2082
100
AcDbEntity
  8
SC
 62
     0
370
    -2
100
AcDbLine
 10
329.1450005407455
 20
144.489
 30
0.0
 11
329.1450005407455
 21
161.779
 31
0.0
  0
SOLID
  5
2087
330
2082
100
AcDbEntity
  8
SC
 62
     0
100
AcDbTrace
 10
328.8116672074122
 20
144.489
 30
0.0
 11
329.4783338740788
 21
144.489
 31
0.0
 12
329.1450005407455
 22
142.489
 32
0.0
 13
329.1450005407455
 23
142.489
 33
0.0
  0
SOLID
  5
2088
330
2082
100
AcDbEntity
  8
SC
 62
     0
100
AcDbTrace
 10
328.8116672074122
 20
161.779
 30
0.0
 11
329.4783338740788
 21
161.779
 31
0.0
 12
329.1450005407455
 22
163.779
 32
0.0
 13
329.1450005407455
 23
163.779
 33
0.0
  0
MTEXT
  5
2089
330
2082
100
AcDbEntity
  8
SC
 62
     0
100
AcDbMText
 10
327.0550005407455
 20
153.134
 30
0.0
 40
4.0
 41
0.0
 71
     5
 72
     1
  1
\A1;P
  7
0
 11
0.0000000000000001
 21
1.0
 31
0.0
 73
     1
 44
1.0
1001
ACAD
1000
MTEXTBEGIN
1070
    73
1070
     1
1070
    44
1040
1.0
1070
    74
1070
     0
1000
MTEXTEND
  0
POINT
  5
208A
330
2082
100
AcDbEntity
  8
DEFPOINTS
 62
     0
100
AcDbPoint
 10
334.2380000000001
 20
142.489
 30
0.0
  0
POINT
  5
208B
330
2082
100
AcDbEntity
  8
DEFPOINTS
 62
     0
100
AcDbPoint
 10
346.8700005407454
 20
163.779
 30
0.0
  0
POINT
  5
208C
330
2082
100
AcDbEntity
  8
DEFPOINTS
 62
     0
100
AcDbPoint
 10
329.1450005407455
 20
163.779
 30
0.0
  0
ENDBLK
  5
208D
330
2082
100
AcDbEntity
  8
0
100
AcDbBlockEnd
  0
BLOCK
  5
208F
330
208E
100
AcDbEntity
  8
0
100
AcDbBlockBegin
  2
*D2
 70
     1
 10
0.0
 20
0.0
 30
0.0
  3
*D2
  1

  0
LINE
  5
2090
330
208E
100
AcDbEntity
  8
SC
 62
     0
370
    -2
100
AcDbLine
 10
375.9894718410777
 20
177.9163071792156
 30
0.0
 11
358.2094690686391
 21
166.2144524573568
 31
0.0
  0
LINE
  5
2091
330
208E
100
AcDbEntity
  8
SC
 62
     0
370
    -2
100
AcDbLine
 10
350.8085309313609
 20
161.3435475426431
 30
0.0
 11
349.1378902683185
 21
160.244020473859
 31
0.0
  0
MTEXT
  5
2092
330
208E
100
AcDbEntity
  8
SC
 62
     0
100
AcDbMText
 10
372.1399947538661
 20
177.8848197030533
 30
0.0
 40
4.0
 41
0.0
 71
     5
 72
     1
  1
\A1;\U+22055
  7
0
 11
0.8353203315212374
 21
0.5497635343920603
 31
0.0
 73
     1
 44
1.0
1001
ACAD
1000
MTEXTBEGIN
1070
    73
1070
     1
1070
    44
1040
1.0
1070
    74
1070
     0
1000
MTEXTEND
  0
LINE
  5
2093
330
208E
100
AcDbEntity
  8
SC
 62
     0
370
    -2
100
AcDbLine
 10
352.4791715944034
 20
162.4430746114272
 30
0.0
 11
356.5388284055967
 21
165.1149253885727
 31
0.0
  0
SOLID
  5
2094
330
208E
100
AcDbEntity
  8
SC
 62
     0
100
AcDbTrace
 10
350.6252764198969
 20
161.6219876531502
 30
0.0
 11
350.991785442825
 21
161.065107432136
 31
0.0
 12
352.4791715944034
 22
162.4430746114272
 32
0.0
 13
352.4791715944034
 23
162.4430746114272
 33
0.0
  0
SOLID
  5
2095
330
208E
100
AcDbEntity
  8
SC
 62
     0
100
AcDbTrace
 10
358.0262145571751
 20
166.4928925678639
 30
0.0
 11
358.3927235801032
 21
165.9360123468497
 31
0.0
 12
356.5388284055967
 22
165.1149253885727
 32
0.0
 13
356.5388284055967
 23
165.1149253885727
 33
0.0
  0
POINT
  5
2096
330
208E
100
AcDbEntity
  8
DEFPOINTS
 62
     0
100
AcDbPoint
 10
356.5388284055967
 20
165.1149253885727
 30
0.0
  0
POINT
  5
2097
330
208E
100
AcDbEntity
  8
DEFPOINTS
 62
     0
100
AcDbPoint
 10
352.4791715944034
 20
162.4430746114272
 30
0.0
  0
ENDBLK
  5
2098
330
208E
100
AcDbEntity
  8
0
100
AcDbBlockEnd
  0
BLOCK
  5
209A
330
2099
100
AcDbEntity
  8
0
100
AcDbBlockBegin
  2
*D3
 70
     1
 10
0.0
 20
0.0
 30
0.0
  3
*D3
  1

  0
LINE
  5
209B
330
2099
100
AcDbEntity
  8
SC
 62
     0
370
    -2
100
AcDbLine
 10
45.44150000000002
 20
134.489
 30
0.0
 11
34.51400000000003
 21
134.489
 31
0.0
  0
LINE
  5
209C
330
2099
100
AcDbEntity
  8
SC
 62
     0
370
    -2
100
AcDbLine
 10
45.44150000000002
 20
150.489
 30
0.0
 11
34.51400000000003
 21
150.489
 31
0.0
  0
LINE
  5
209D
330
2099
100
AcDbEntity
  8
SC
 62
     0
370
    -2
100
AcDbLine
 10
34.69400000000002
 20
136.489
 30
0.0
 11
34.69400000000003
 21
148.489
 31
0.0
  0
SOLID
  5
209E
330
2099
100
AcDbEntity
  8
SC
 62
     0
100
AcDbTrace
 10
34.36066666666669
 20
136.489
 30
0.0
 11
35.02733333333336
 21
136.489
 31
0.0
 12
34.69400000000002
 22
134.489
 32
0.0
 13
34.69400000000002
 23
134.489
 33
0.0
  0
SOLID
  5
209F
330
2099
100
AcDbEntity
  8
SC
 62
     0
100
AcDbTrace
 10
34.3606666666667
 20
148.489
 30
0.0
 11
35.02733333333337
 21
148.489
 31
0.0
 12
34.69400000000003
 22
150.489
 32
0.0
 13
34.69400000000003
 23
150.489
 33
0.0
  0
MTEXT
  5
20A0
330
2099
100
AcDbEntity
  8
SC
 62
     0
100
AcDbMText
 10
32.60400000000001
 20
142.489
 30
0.0
 40
4.0
 41
0.0
 71
     5
 72
     1
  1
\A1;φ
  7
0
 11
0.0000000000000001
 21
1.0
 31
0.0
 73
     1
 44
1.0
1001
ACAD
1000
MTEXTBEGIN
1070
    73
1070
     1
1070
    44
1040
1.0
1070
    74
1070
     0
1000
MTEXTEND
  0
POINT
  5
20A1
330
2099
100
AcDbEntity
  8
DEFPOINTS
 62
     0
100
AcDbPoint
 10
45.50400000000002
 20
134.489
 30
0.0
  0
POINT
  5
20A2
330
2099
100
AcDbEntity
  8
DEFPOINTS
 62
     0
100
AcDbPoint
 10
45.50400000000002
 20
150.489
 30
0.0
  0
POINT
  5
20A3
330
2099
100
AcDbEntity
  8
DEFPOINTS
 62
     0
100
AcDbPoint
 10
34.69400000000003
 20
150.489
 30
0.0
  0
ENDBLK
  5
20A4
330
2099
100
AcDbEntity
  8
0
100
AcDbBlockEnd
  0
BLOCK
  5
2228
330
221D
100
AcDbEntity
  8
0
100
AcDbBlockBegin
  2
*D5
 70
     1
 10
0.0
 20
0.0
 30
0.0
  3
*D5
  1

  0
LINE
  5
2242
330
221D
100
AcDbEntity
  8
SC
 62
     0
370
    -2
100
AcDbLine
 10
50.31083312909266
 20
123.9035726480951
 30
0.0
 11
39.38333312909266
 21
123.9035726480951
 31
0.0
  0
LINE
  5
2243
330
221D
100
AcDbEntity
  8
SC
 62
     0
370
    -2
100
AcDbLine
 10
50.31083312909266
 20
139.9035726480951
 30
0.0
 11
39.38333312909266
 21
139.9035726480951
 31
0.0
  0
LINE
  5
2244
330
221D
100
AcDbEntity
  8
SC
 62
     0
370
    -2
100
AcDbLine
 10
39.56333312909266
 20
125.9035726480951
 30
0.0
 11
39.56333312909266
 21
130.8135726480951
 31
0.0
  0
LINE
  5
2245
330
221D
100
AcDbEntity
  8
SC
 62
     0
370
    -2
100
AcDbLine
 10
39.56333312909266
 20
137.9035726480951
 30
0.0
 11
39.56333312909266
 21
132.9935726480951
 31
0.0
  0
SOLID
  5
2246
330
221D
100
AcDbEntity
  8
SC
 62
     0
100
AcDbTrace
 10
39.22999979575933
 20
125.9035726480951
 30
0.0
 11
39.896666462426
 21
125.9035726480951
 31
0.0
 12
39.56333312909266
 22
123.9035726480951
 32
0.0
 13
39.56333312909266
 23
123.9035726480951
 33
0.0
  0
SOLID
  5
2247
330
221D
100
AcDbEntity
  8
SC
 62
     0
100
AcDbTrace
 10
39.22999979575933
 20
137.9035726480951
 30
0.0
 11
39.896666462426
 21
137.9035726480951
 31
0.0
 12
39.56333312909266
 22
139.9035726480951
 32
0.0
 13
39.56333312909266
 23
139.9035726480951
 33
0.0
  0
MTEXT
  5
2248
330
221D
100
AcDbEntity
  8
SC
 62
     0
100
AcDbMText
 10
39.56333312909264
 20
131.9035726480951
 30
0.0
 40
2.0
 41
0.0
 71
     5
 72
     1
  1
\A1;φ
 73
     1
 44
1.0
1001
ACAD
1000
MTEXTBEGIN
1070
    73
1070
     1
1070
    44
1040
1.0
1070
    74
1070
     0
1000
MTEXTEND
  0
POINT
  5
2249
330
221D
100
AcDbEntity
  8
DEFPOINTS
 62
     0
100
AcDbPoint
 10
50.37333312909265
 20
123.9035726480951
 30
0.0
  0
POINT
  5
224A
330
221D
100
AcDbEntity
  8
DEFPOINTS
 62
     0
100
AcDbPoint
 10
50.37333312909265
 20
139.9035726480951
 30
0.0
  0
POINT
  5
224B
330
221D
100
AcDbEntity
  8
DEFPOINTS
 62
     0
100
AcDbPoint
 10
39.56333312909266
 20
139.9035726480951
 30
0.0
  0
ENDBLK
  5
2229
330
221D
100
AcDbEntity
  8
0
100
AcDbBlockEnd
  0
BLOCK
  5
2233
330
222A
100
AcDbEntity
  8
0
100
AcDbBlockBegin
  2
*D6
 70
     1
 10
0.0
 20
0.0
 30
0.0
  3
*D6
  1

  0
LINE
  5
224C
330
222A
100
AcDbEntity
  8
SC
 62
     0
370
    -2
100
AcDbLine
 10
380.1583336698385
 20
165.5535728582689
 30
0.0
 11
378.1583336698385
 21
165.5535728582689
 31
0.0
  0
LINE
  5
224D
330
222A
100
AcDbEntity
  8
SC
 62
     0
370
    -2
100
AcDbLine
 10
378.1583336698385
 20
165.5535728582689
 30
0.0
 11
363.0788021977318
 21
155.6290251054519
 31
0.0
  0
MTEXT
  5
224E
330
222A
100
AcDbEntity
  8
SC
 62
     0
100
AcDbMText
 10
385.9150003365052
 20
165.5535728582689
 30
0.0
 40
2.0
 41
0.0
 71
     5
 72
     1
  1
\A1;\U+22054.8600
 73
     1
 44
1.0
1001
ACAD
1000
MTEXTBEGIN
1070
    73
1070
     1
1070
    44
1040
1.0
1070
    74
1070
     0
1000
MTEXTEND
  0
SOLID
  5
224F
330
222A
100
AcDbEntity
  8
SC
 62
     0
100
AcDbTrace
 10
362.8955476862679
 20
155.9074652159589
 30
0.0
 11
363.2620567091958
 21
155.3505849949448
 31
0.0
 12
361.4081615346893
 22
154.5294980366678
 32
0.0
 13
361.4081615346893
 23
154.5294980366678
 33
0.0
  0
LINE
  5
2250
330
222A
100
AcDbEntity
  8
SC
 62
     0
370
    -2
100
AcDbLine
 10
359.2883331290926
 20
153.193572648095
 30
0.0
 11
359.4683331290926
 21
153.193572648095
 31
0.0
  0
LINE
  5
2251
330
222A
100
AcDbEntity
  8
SC
 62
     0
370
    -2
100
AcDbLine
 10
359.3783331290926
 20
153.103572648095
 30
0.0
 11
359.3783331290925
 21
153.283572648095
 31
0.0
  0
POINT
  5
2252
330
222A
100
AcDbEntity
  8
DEFPOINTS
 62
     0
100
AcDbPoint
 10
361.4081615346893
 20
154.5294980366678
 30
0.0
  0
POINT
  5
2253
330
222A
100
AcDbEntity
  8
DEFPOINTS
 62
     0
100
AcDbPoint
 10
357.348504723496
 20
151.8576472595223
 30
0.0
  0
ENDBLK
  5
2234
330
222A
100
AcDbEntity
  8
0
100
AcDbBlockEnd
  0
BLOCK
  5
2240
330
2235
100
AcDbEntity
  8
0
100
AcDbBlockBegin
  2
*D7
 70
     1
 10
0.0
 20
0.0
 30
0.0
  3
*D7
  1

  0
LINE
  5
23A1
330
2235
100
AcDbEntity
  8
SC
 62
     0
370
    -2
100
AcDbLine
 10
339.0448331290927
 20
131.9035726480951
 30
0.0
 11
335.2683333333334
 21
131.9035726480951
 31
0.0
  0
LINE
  5
23A2
330
2235
100
AcDbEntity
  8
SC
 62
     0
370
    -2
100
AcDbLine
 10
351.6768336698381
 20
153.193572648095
 30
0.0
 11
335.2683333333334
 21
153.193572648095
 31
0.0
  0
LINE
  5
23A3
330
2235
100
AcDbEntity
  8
SC
 62
     0
370
    -2
100
AcDbLine
 10
335.4483333333334
 20
133.9035726480951
 30
0.0
 11
335.4483333333334
 21
151.1935726480951
 31
0.0
  0
LINE
  5
23A4
330
2235
100
AcDbEntity
  8
SC
 62
     0
370
    -2
100
AcDbLine
 10
335.4483333333334
 20
153.193572648095
 30
0.0
 11
335.4483333333334
 21
160.6289999999999
 31
0.0
  0
LINE
  5
23A5
330
2235
100
AcDbEntity
  8
SC
 62
     0
370
    -2
100
AcDbLine
 10
335.4483333333334
 20
160.6289999999999
 30
0.0
 11
337.4483333333334
 21
160.6289999999999
 31
0.0
  0
SOLID
  5
23A6
330
2235
100
AcDbEntity
  8
SC
 62
     0
100
AcDbTrace
 10
335.115
 20
133.9035726480951
 30
0.0
 11
335.7816666666667
 21
133.9035726480951
 31
0.0
 12
335.4483333333334
 22
131.9035726480951
 32
0.0
 13
335.4483333333334
 23
131.9035726480951
 33
0.0
  0
SOLID
  5
23A7
330
2235
100
AcDbEntity
  8
SC
 62
     0
100
AcDbTrace
 10
335.115
 20
151.1935726480951
 30
0.0
 11
335.7816666666667
 21
151.1935726480951
 31
0.0
 12
335.4483333333334
 22
153.193572648095
 32
0.0
 13
335.4483333333334
 23
153.193572648095
 33
0.0
  0
MTEXT
  5
23A8
330
2235
100
AcDbEntity
  8
SC
 62
     0
100
AcDbMText
 10
338.205
 20
160.629
 30
0.0
 40
2.0
 41
0.0
 71
     5
 72
     1
  1
\A1;P
 73
     1
 44
1.0
1001
ACAD
1000
MTEXTBEGIN
1070
    73
1070
     1
1070
    44
1040
1.0
1070
    74
1070
     0
1000
MTEXTEND
  0
POINT
  5
23A9
330
2235
100
AcDbEntity
  8
DEFPOINTS
 62
     0
100
AcDbPoint
 10
339.1073331290927
 20
131.9035726480951
 30
0.0
  0
POINT
  5
23AA
330
2235
100
AcDbEntity
  8
DEFPOINTS
 62
     0
100
AcDbPoint
 10
351.739333669838
 20
153.193572648095
 30
0.0
  0
POINT
  5
23AB
330
2235
100
AcDbEntity
  8
DEFPOINTS
 62
     0
100
AcDbPoint
 10
335.4483333333334
 20
153.193572648095
 30
0.0
  0
ENDBLK
  5
2241
330
2235
100
AcDbEntity
  8
0
100
AcDbBlockEnd
  0
ENDSEC
  0
SECTION
  2
ENTITIES
  0
TEXT
  5
61
330
1E
100
AcDbEntity
  8
MO
100
AcDbText
 10
328.5
 20
53.5
 30
0.0
 40
4.0
  1

  7
0
 72
     1
 11
328.5
 21
53.5
 31
0.0
100
AcDbText
  0
TEXT
  5
62
330
1E
100
AcDbEntity
  8
MO
100
AcDbText
 10
328.5
 20
47.0
 30
0.0
 40
4.0
  1

  7
0
 72
     1
 11
328.5
 21
47.0
 31
0.0
100
AcDbText
  0
TEXT
  5
63
330
1E
100
AcDbEntity
  8
MO
100
AcDbText
 10
328.5
 20
34.0
 30
0.0
 40
4.0
  1

  7
0
 72
     1
 11
328.5
 21
34.0
 31
0.0
100
AcDbText
  0
TEXT
  5
6E
330
1E
100
AcDbEntity
  8
MO
100
AcDbText
 10
328.204
 20
39.802
 30
0.0
 40
4.0
  1

  7
0
 72
     1
 11
328.204
 21
39.802
 31
0.0
100
AcDbText
  0
TEXT
  5
89
330
1E
100
AcDbEntity
  8
MO
100
AcDbText
 10
82.20200000000009
 20
51.07199999999998
 30
0.0
 40
3.0
  1

  7
0
100
AcDbText
  0
TEXT
  5
8B
330
1E
100
AcDbEntity
  8
MO
100
AcDbText
 10
110.859
 20
51.07199999999998
 30
0.0
 40
3.0
  1

  7
0
100
AcDbText
  0
TEXT
  5
8D
330
1E
100
AcDbEntity
  8
MO
100
AcDbText
 10
360.261
 20
19.91099999999999
 30
0.0
 40
7.0
  1

  7
0
 72
     4
 11
360.261
 21
19.91099999999999
 31
0.0
100
AcDbText
  0
TEXT
  5
91
330
1E
100
AcDbEntity
  8
MO
370
    40
100
AcDbText
 10
199.3044005524236
 20
247.6984004932194
 30
0.0
 40
10.8
  1
ツバ付カートリッジヒーター
  7
0
100
AcDbText
  0
TEXT
  5
AC
330
1E
100
AcDbEntity
  8
MO
100
AcDbText
 10
103.1910000000001
 20
51.07199999999996
 30
0.0
 40
3.0
  1

  7
0
100
AcDbText
  0
TEXT
  5
1399
330
1E
100
AcDbEntity
  8
MO
100
AcDbText
 10
75.70200000000008
 20
51.07199999999998
 30
0.0
 40
3.0
  1

  7
0
100
AcDbText
  0
TEXT
  5
139C
330
1E
100
AcDbEntity
  8
MO
100
AcDbText
 10
110.859
 20
63.07199999999996
 30
0.0
 40
3.0
  1

  7
0
100
AcDbText
  0
TEXT
  5
139F
330
1E
100
AcDbEntity
  8
SC
100
AcDbText
 10
135.033
 20
64.98099999999995
 30
0.0
 40
2.0
  1

  7
0
100
AcDbText
  0
TEXT
  5
13A0
330
1E
100
AcDbEntity
  8
MO
100
AcDbText
 10
110.859
 20
45.07200000000001
 30
0.0
 40
3.0
  1

  7
0
100
AcDbText
  0
TEXT
  5
148E
330
1E
100
AcDbEntity
  8
MO
100
AcDbText
 10
355.5371320877766
 20
10.917
 30
0.0
 40
5.0
  1
株）
  7
0
 72
     1
 11
359.5371320877766
 21
10.917
 31
0.0
100
AcDbText
  0
TEXT
  5
1491
330
1E
100
AcDbEntity
  8
SC
100
AcDbText
 10
103.7564
 20
117.6597333333333
 30
0.0
 40
0.25
  1

100
AcDbText
  0
TEXT
  5
1492
330
1E
100
AcDbEntity
  8
MO
100
AcDbText
 10
366.81
 20
10.917
 30
0.0
 40
6.0
  1
愛西電熱
  7
0
 72
     1
 11
380.41
 21
10.917
 31
0.0
100
AcDbText
  0
MTEXT
  5
1758
330
1E
100
AcDbEntity
  8
SC
100
AcDbMText
 10
317.637
 20
21.871
 30
0.0
 40
2.5
 41
0.0
 71
     1
 72
     5
  1

  7
0
 73
     1
 44
1.0
1001
ACAD
1000
MTEXTBEGIN
1070
    73
1070
     1
1070
    44
1040
1.0
1070
    74
1070
     0
1000
MTEXTEND
  0
MTEXT
  5
178F
330
1E
100
AcDbEntity
  8
SC
100
AcDbMText
 10
254.8330417031702
 20
63.73835908787317
 30
0.0
 40
5.0
 41
0.0
 71
     1
 72
     5
  1
変更部がありましたら図面に書き込んで御利用下さい
  7
0
 73
     1
 44
1.0
1001
ACAD
1000
MTEXTBEGIN
1070
    73
1070
     1
1070
    44
1040
1.0
1070
    74
1070
     0
1000
MTEXTEND
  0
LINE
  5
17DC
330
1E
100
AcDbEntity
  8
0
100
AcDbLine
 10
14.99999999999995
 20
30.70499999999999
 30
0.0
 11
14.99999999999995
 21
50.70499999999999
 31
0.0
  0
LINE
  5
17DE
330
1E
100
AcDbEntity
  8
0
100
AcDbLine
 10
24.99999999999994
 20
50.70499999999999
 30
0.0
 11
24.99999999999994
 21
30.705
 31
0.0
  0
LINE
  5
1806
330
1E
100
AcDbEntity
  8
0
100
AcDbLine
 10
14.99999999999995
 20
50.70499999999999
 30
0.0
 11
49.99999999999994
 21
50.70499999999999
 31
0.0
  0
LINE
  5
1807
330
1E
100
AcDbEntity
  8
0
100
AcDbLine
 10
14.99999999999995
 20
40.70499999999999
 30
0.0
 11
49.99999999999994
 21
40.70499999999999
 31
0.0
  0
LINE
  5
1808
330
1E
100
AcDbEntity
  8
0
100
AcDbLine
 10
14.99999999999995
 20
30.70499999999999
 30
0.0
 11
49.99999999999994
 21
30.70499999999999
 31
0.0
  0
LINE
  5
180A
330
1E
100
AcDbEntity
  8
0
100
AcDbLine
 10
159.9999999999999
 20
50.70499999999999
 30
0.0
 11
281.0
 21
50.70499999999999
 31
0.0
  0
TEXT
  5
1814
330
1E
100
AcDbEntity
  8
MO
100
AcDbText
 10
19.18000058282744
 20
43.87999982484505
 30
0.0
 40
3.499999999999999
  1
A
  7
0
100
AcDbText
  0
TEXT
  5
181A
330
1E
100
AcDbEntity
  8
MO
100
AcDbText
 10
91.28012879570206
 20
43.7553613470516
 30
0.0
 40
3.499999999999999
  1
B
  7
0
100
AcDbText
  0
TEXT
  5
1822
330
1E
100
AcDbEntity
  8
MO
100
AcDbText
 10
27.79911516864903
 20
43.07893657328403
 30
0.0
 40
4.375
  1
パイプ径
  7
0
 72
     1
 11
37.7157818353157
 21
43.07893657328403
 31
0.0
100
AcDbText
  0
TEXT
  5
1829
330
1E
100
AcDbEntity
  8
MO
100
AcDbText
 10
105.2406545747246
 20
43.61824969380626
 30
0.0
 40
4.375
  1
長さ
  7
0
 72
     1
 11
109.6156545747246
 21
43.61824969380626
 31
0.0
100
AcDbText
  0
TEXT
  5
1844
330
1E
100
AcDbEntity
  8
MO
100
AcDbText
 10
18.85312879570205
 20
33.67336134705161
 30
0.0
 40
3.499999999999999
  1
C
  7
0
100
AcDbText
  0
TEXT
  5
1845
330
1E
100
AcDbEntity
  8
MO
100
AcDbText
 10
32.40350193661301
 20
33.50686474409736
 30
0.0
 40
4.375
  1
線長
  7
0
 72
     1
 11
36.92433526994634
 21
33.50686474409736
 31
0.0
100
AcDbText
  0
LINE
  5
1847
330
1E
100
AcDbEntity
  8
0
100
AcDbLine
 10
49.99999999999994
 20
50.70499999999999
 30
0.0
 11
49.99999999999994
 21
30.70499999999999
 31
0.0
  0
TEXT
  5
1856
330
1E
100
AcDbEntity
  8
MO
100
AcDbText
 10
226.088412769654
 20
33.66682550160349
 30
0.0
 40
4.375
  1
数量
  7
0
 72
     1
 11
230.7550794363206
 21
33.66682550160349
 31
0.0
100
AcDbText
  0
LINE
  5
1870
330
1E
100
AcDbEntity
  8
0
100
AcDbLine
 10
14.99999999999994
 20
30.705
 30
0.0
 11
159.9999999999999
 21
30.70499999999999
 31
0.0
  0
LINE
  5
1871
330
1E
100
AcDbEntity
  8
0
100
AcDbLine
 10
87.49999999999992
 20
50.70499999999999
 30
0.0
 11
87.49999999999992
 21
30.70499999999999
 31
0.0
  0
LINE
  5
1873
330
1E
100
AcDbEntity
  8
0
100
AcDbLine
 10
49.99999999999994
 20
50.70499999999999
 30
0.0
 11
159.9999999999999
 21
50.70499999999999
 31
0.0
  0
LINE
  5
1874
330
1E
100
AcDbEntity
  8
0
100
AcDbLine
 10
49.99999999999994
 20
40.70499999999999
 30
0.0
 11
87.49999999999992
 21
40.70499999999999
 31
0.0
  0
LINE
  5
1875
330
1E
100
AcDbEntity
  8
0
100
AcDbLine
 10
49.99999999999994
 20
30.70499999999999
 30
0.0
 11
159.9999999999999
 21
30.70499999999999
 31
0.0
  0
LINE
  5
1884
330
1E
100
AcDbEntity
  8
0
100
AcDbLine
 10
122.4999999999999
 20
40.705
 30
0.0
 11
159.9999999999999
 21
40.705
 31
0.0
  0
LINE
  5
1888
330
1E
100
AcDbEntity
  8
0
100
AcDbLine
 10
14.99999999999994
 20
30.705
 30
0.0
 11
159.9999999999999
 21
30.70499999999999
 31
0.0
  0
LINE
  5
1889
330
1E
100
AcDbEntity
  8
0
100
AcDbLine
 10
17.99999999999994
 20
20.705
 30
0.0
 11
283.2259999999999
 21
20.70499999999999
 31
0.0
  0
LINE
  5
188A
330
1E
100
AcDbEntity
  8
0
100
AcDbLine
 10
17.99999999999994
 20
10.705
 30
0.0
 11
283.2259999999999
 21
10.70499999999998
 31
0.0
  0
TEXT
  5
1892
330
1E
100
AcDbEntity
  8
MO
100
AcDbText
 10
18.0825030365616
 20
28.37468907764135
 30
0.0
 40
2.799999999999999
  1

  7
0
100
AcDbText
  0
TEXT
  5
1893
330
1E
100
AcDbEntity
  8
MO
100
AcDbText
 10
18.31122710757998
 20
21.78303665633006
 30
0.0
 40
3.5
  1
その他詳細：
  7
0
 72
     1
 11
29.86122710757998
 21
21.78303665633006
 31
0.0
100
AcDbText
  0
LINE
  5
18A2
330
1E
100
AcDbEntity
  8
0
100
AcDbLine
 10
87.49999999999992
 20
40.70499999999999
 30
0.0
 11
159.9999999999999
 21
40.70499999999999
 31
0.0
  0
TEXT
  5
18A3
330
1E
100
AcDbEntity
  8
MO
100
AcDbText
 10
226.322471877816
 20
43.55161148403567
 30
0.0
 40
4.375
  1
容量
  7
0
 72
     1
 11
230.9891385444827
 21
43.55161148403567
 31
0.0
100
AcDbText
  0
TEXT
  5
18A5
330
1E
100
AcDbEntity
  8
MO
100
AcDbText
 10
166.1966333931626
 20
43.47752605931685
 30
0.0
 40
4.375
  1
電圧
  7
0
 72
     1
 11
170.8633000598292
 21
43.47752605931685
 31
0.0
100
AcDbText
  0
LINE
  5
18A9
330
1E
100
AcDbEntity
  8
0
100
AcDbLine
 10
159.9999999999999
 20
50.70499999999999
 30
0.0
 11
159.9999999999999
 21
30.70499999999999
 31
0.0
  0
LINE
  5
18AA
330
1E
100
AcDbEntity
  8
0
100
AcDbLine
 10
97.49999999999994
 20
50.70499999999999
 30
0.0
 11
97.49999999999994
 21
30.70499999999999
 31
0.0
  0
LINE
  5
18AB
330
1E
100
AcDbEntity
  8
0
100
AcDbLine
 10
122.4999999999999
 20
50.70499999999999
 30
0.0
 11
122.4999999999999
 21
30.70499999999999
 31
0.0
  0
TEXT
  5
18B4
330
1E
100
AcDbEntity
  8
MO
100
AcDbText
 10
334.7498393399925
 20
3.380574230302642
 30
0.0
 40
3.5
  1
AISEI  DENNETSU CO., LTD
  7
0
100
AcDbText
  0
TEXT
  5
18BD
330
1E
100
AcDbEntity
  8
MO
100
AcDbText
 10
397.7133211714158
 20
11.06163477656134
 30
0.0
 40
5.0
  1
行
  7
0
 72
     1
 11
400.046654504749
 21
11.06163477656134
 31
0.0
100
AcDbText
  0
TEXT
  5
18C6
330
1E
100
AcDbEntity
  8
MO
100
AcDbText
 10
80.18549947051658
 20
43.19699993280605
 30
0.0
 40
4.375
  1
φ
  7
0
 72
     1
 11
82.37299947051658
 21
43.19699993280605
 31
0.0
100
AcDbText
  0
TEXT
  5
18CC
330
1E
100
AcDbEntity
  8
MO
100
AcDbText
 10
150.2635240194453
 20
42.82492724811003
 30
0.0
 40
3.0625
  1
mm
  7
0
 72
     1
 11
154.055190686112
 21
42.82492724811003
 31
0.0
100
AcDbText
  0
TEXT
  5
18D2
330
1E
100
AcDbEntity
  8
MO
100
AcDbText
 10
212.9983333333334
 20
42.769
 30
0.0
 40
4.375
  1
V
  7
0
 72
     1
 11
214.665
 21
42.769
 31
0.0
100
AcDbText
  0
TEXT
  5
18DE
330
1E
100
AcDbEntity
  8
MO
100
AcDbText
 10
273.907542192391
 20
33.68694780040364
 30
0.0
 40
4.375
  1
本
  7
0
 72
     1
 11
275.9492088590577
 21
33.68694780040364
 31
0.0
100
AcDbText
  0
TEXT
  5
18E4
330
1E
100
AcDbEntity
  8
MO
100
AcDbText
 10
68.9897995764133
 20
33.91959994624484
 30
0.0
 40
3.5
  1

  7
0
 72
     1
 11
68.9897995764133
 21
33.91959994624484
 31
0.0
100
AcDbText
  0
TEXT
  5
18EB
330
1E
100
AcDbEntity
  8
MO
100
AcDbText
 10
17.62914196000259
 20
55.01909017515878
 30
0.0
 40
4.550000000000001
  1
※　下記空欄に記入し、FAXしてください
  7
0
100
AcDbText
  0
LINE
  5
18ED
330
1E
100
AcDbEntity
  8
0
100
AcDbLine
 10
3.193615971125439
 20
267.713
 30
0.0
 11
128.2526159711254
 21
267.713
 31
0.0
  0
LINE
  5
18EE
330
1E
100
AcDbEntity
  8
0
100
AcDbLine
 10
3.193615971125439
 20
255.713
 30
0.0
 11
128.2526159711254
 21
255.7129999999999
 31
0.0
  0
LINE
  5
18EF
330
1E
100
AcDbEntity
  8
0
100
AcDbLine
 10
3.193615971125424
 20
243.713
 30
0.0
 11
128.2526159711254
 21
243.7129999999999
 31
0.0
  0
LINE
  5
18F0
330
1E
100
AcDbEntity
  8
0
100
AcDbLine
 10
3.193615971125424
 20
231.713
 30
0.0
 11
128.2526159711254
 21
231.7129999999999
 31
0.0
  0
TEXT
  5
18F7
330
1E
100
AcDbEntity
  8
MO
100
AcDbText
 10
5.047000000000002
 20
269.7195108252091
 30
0.0
 40
4.375
  1
貴社名：
  7
0
 72
     1
 11
14.08866666666667
 21
269.7195108252091
 31
0.0
100
AcDbText
  0
TEXT
  5
18FF
330
1E
100
AcDbEntity
  8
MO
100
AcDbText
 10
4.762445293775542
 20
259.6404968976157
 30
0.0
 40
4.375
  1
部署・担当者名：
  7
0
 72
     1
 11
24.30411196044222
 21
259.6404968976157
 31
0.0
100
AcDbText
  0
TEXT
  5
190B
330
1E
100
AcDbEntity
  8
MO
100
AcDbText
 10
4.244409610399635
 20
235.1743512486338
 30
0.0
 40
4.375
  1
御連絡先 FAX：
  7
0
 72
     1
 11
23.4735762770663
 21
235.1743512486338
 31
0.0
100
AcDbText
  0
TEXT
  5
1918
330
1E
100
AcDbEntity
  8
MO
100
AcDbText
 10
4.271947869785471
 20
247.7453335828736
 30
0.0
 40
4.375
  1
御連絡先 TEL：
  7
0
 72
     1
 11
22.87611453645213
 21
247.7453335828736
 31
0.0
100
AcDbText
  0
LINE
  5
1923
330
1E
100
AcDbEntity
  8
0
370
    40
100
AcDbLine
 10
315.0881625155811
 20
37.35735115744029
 30
0.0
 11
393.0881625155811
 21
37.35735115744029
 31
0.0
  0
LINE
  5
1924
330
1E
100
AcDbEntity
  8
0
370
    40
100
AcDbLine
 10
315.0881625155811
 20
34.7573511574403
 30
0.0
 11
399.5881625155811
 21
34.7573511574403
 31
0.0
  0
LINE
  5
1925
330
1E
100
AcDbEntity
  8
0
370
    40
100
AcDbLine
 10
393.0881625155811
 20
37.35735115744029
 30
0.0
 11
393.0881625155811
 21
39.95735115744029
 31
0.0
  0
LINE
  5
1926
330
1E
100
AcDbEntity
  8
0
370
    40
100
AcDbLine
 10
393.0881625155811
 20
39.95735115744029
 30
0.0
 11
399.5881625155811
 21
34.7573511574403
 31
0.0
  0
LINE
  5
1927
330
1E
100
AcDbEntity
  8
0
370
    40
100
AcDbLine
 10
315.0881625155811
 20
37.35735115744029
 30
0.0
 11
315.0881625155811
 21
34.7573511574403
 31
0.0
  0
TEXT
  5
192E
330
1E
100
AcDbEntity
  8
MO
370
    40
100
AcDbText
 10
324.6798300677355
 20
38.84484239326316
 30
0.0
 40
7.800000000000001
  1
FAX送信方向
  7
0
 72
     1
 11
353.2426872105926
 21
38.84484239326316
 31
0.0
100
AcDbText
  0
TEXT
  5
1943
330
1E
100
AcDbEntity
  8
0
370
    53
100
AcDbText
 10
86.07465571428523
 20
284.1842971226886
 30
0.0
 40
10.0
  1
愛西電熱　見積依頼書・注文書　フォーム
  7
0
100
AcDbText
  0
TEXT
  5
195E
330
1E
100
AcDbEntity
  8
MO
370
    40
100
AcDbText
 10
313.1463329590498
 20
24.83965109775832
 30
0.0
 40
7.800000000000001
  1
0568-25-2241
  7
0
 72
     1
 11
357.1606186733355
 21
24.83965109775832
 31
0.0
100
AcDbText
  0
LINE
  5
19C2
330
1E
100
AcDbEntity
  8
SC
370
    40
100
AcDbLine
 10
195.036
 20
245.664
 30
0.0
 11
369.588
 21
245.664
 31
0.0
  0
LINE
  5
19F9
330
1E
100
AcDbEntity
  8
0
100
AcDbLine
 10
160.9999999999999
 20
50.70499999999999
 30
0.0
 11
160.9999999999999
 21
30.70499999999999
 31
0.0
  0
LINE
  5
1A00
330
1E
100
AcDbEntity
  8
0
100
AcDbLine
 10
159.9999999999999
 20
40.705
 30
0.0
 11
280.9999999999999
 21
40.70499999999983
 31
0.0
  0
LINE
  5
1A06
330
1E
100
AcDbEntity
  8
0
100
AcDbLine
 10
159.9999999999999
 20
30.70499999999999
 30
0.0
 11
280.9999999999999
 21
30.70499999999997
 31
0.0
  0
LINE
  5
1A08
330
1E
100
AcDbEntity
  8
0
100
AcDbLine
 10
180.9999999999999
 20
50.70499999999999
 30
0.0
 11
180.9999999999999
 21
30.70499999999999
 31
0.0
  0
LINE
  5
1A09
330
1E
100
AcDbEntity
  8
0
100
AcDbLine
 10
220.9999999999999
 20
50.70499999999999
 30
0.0
 11
220.9999999999999
 21
30.70499999999998
 31
0.0
  0
LINE
  5
1A12
330
1E
100
AcDbEntity
  8
0
100
AcDbLine
 10
281.0
 20
50.70499999999999
 30
0.0
 11
280.9999999999999
 21
30.70499999999997
 31
0.0
  0
LINE
  5
1A13
330
1E
100
AcDbEntity
  8
0
100
AcDbLine
 10
241.0
 20
50.70499999999999
 30
0.0
 11
241.0
 21
30.70499999999999
 31
0.0
  0
LINE
  5
1A14
330
1E
100
AcDbEntity
  8
0
100
AcDbLine
 10
220.9999999999999
 20
50.70499999999999
 30
0.0
 11
220.9999999999999
 21
30.70499999999999
 31
0.0
  0
LWPOLYLINE
  5
1E44
330
1E
100
AcDbEntity
  8
SC
100
AcDbPolyline
 90
        3
 70
     0
 43
0.0
 10
190.8464493234659
 20
133.0710379009162
 10
200.7796668709075
 20
161.496
 10
252.6934079454441
 20
161.496
1001
ACAD
1000
DSTYLE
1002
{
1070
   147
1040
0.09
1070
    77
1070
     0
1002
}
  0
SOLID
  5
1E45
330
1E
100
AcDbEntity
  8
SC
100
AcDbTrace
 10
191.1611223069519
 20
132.9610741588231
 30
0.0
 11
190.1866668709074
 21
131.183
 31
0.0
 12
190.5317763399798
 22
133.1810016430093
 32
0.0
 13
190.5317763399798
 23
133.1810016430093
 33
0.0
1001
ACAD
1000
DSTYLE
1002
{
1070
   147
1040
0.09
1070
    77
1070
     0
1002
}
  0
LEADER
  5
1FD9
330
1E
100
AcDbEntity
  8
SC
100
AcDbLeader
  3
Standard
 76
     2
 10
72.55366687090736
 20
128.8324273519049
 30
0.0
 10
87.84566687090729
 20
159.7444273519049
 30
0.0
1001
ACAD
1000
DSTYLE
1002
{
1070
   341
1005
1C97
1070
   147
1040
0.09
1070
    77
1070
     0
1002
}
  0
LINE
  5
1FF3
330
1E
100
AcDbEntity
  8
SC
100
AcDbLine
 10
87.84566687090729
 20
159.7444273519049
 30
0.0
 11
129.939407945444
 21
159.7444273519049
 31
0.0
  0
TEXT
  5
1FF9
330
1E
100
AcDbEntity
  8
MO
100
AcDbText
 10
89.78655376223116
 20
160.0731161984832
 30
0.0
 40
3.599999999999999
  1
ヒーター SUS304
  7
0
100
AcDbText
  0
TEXT
  5
2009
330
1E
100
AcDbEntity
  8
MO
100
AcDbText
 10
203.822407466137
 20
161.7679997867304
 30
0.0
 40
3.599999999999999
  1
シリコンガラスチューブ
  7
0
100
AcDbText
  0
TEXT
  5
200F
330
1E
100
AcDbEntity
  8
MO
100
AcDbText
 10
237.4474074107452
 20
157.9950000938846
 30
0.0
 40
2.799999999999999
  1
SRG-1
  7
0
100
AcDbText
  0
TEXT
  5
2035
330
1E
100
AcDbEntity
  8
MO
100
AcDbText
 10
77.7635240194453
 20
32.82492724811003
 30
0.0
 40
3.0625
  1
mm
  7
0
 72
     1
 11
81.55519068611196
 21
32.82492724811003
 31
0.0
100
AcDbText
  0
TEXT
  5
2074
330
1E
100
AcDbEntity
  8
MO
100
AcDbText
 10
273.7702715460106
 20
42.96686629518278
 30
0.0
 40
4.375
  1
W
  7
0
 72
     1
 11
275.8536048793439
 21
42.96686629518278
 31
0.0
100
AcDbText
  0
TEXT
  5
216E
330
1E
100
AcDbEntity
  8
MO
100
AcDbText
 10
341.5494035864854
 20
88.19523491275594
 30
0.0
 40
6.0
  1
ツバ部詳細
  7
0
 72
     1
 11
358.7494035864854
 21
88.19523491275594
 31
0.0
100
AcDbText
  0
LINE
  5
2172
330
1E
100
AcDbEntity
  8
SA
100
AcDbLine
 10
178.08
 20
117.183
 30
0.0
 11
181.08
 21
117.183
 31
0.0
  0
LINE
  5
2173
330
1E
100
AcDbEntity
  8
SA
100
AcDbLine
 10
181.08
 20
117.183
 30
0.0
 11
181.08
 21
133.183
 31
0.0
  0
LINE
  5
2174
330
1E
100
AcDbEntity
  8
SA
100
AcDbLine
 10
178.08
 20
133.183
 30
0.0
 11
181.2210005407455
 21
133.183
 31
0.0
  0
LINE
  5
2177
330
1E
100
AcDbEntity
  8
SA
100
AcDbLine
 10
311.0800000000001
 20
119.683
 30
0.0
 11
231.08
 21
119.683
 31
0.0
  0
LINE
  5
2178
330
1E
100
AcDbEntity
  8
SA
100
AcDbLine
 10
311.0800000000001
 20
121.683
 30
0.0
 11
311.0800000000001
 21
119.683
 31
0.0
  0
LINE
  5
2179
330
1E
100
AcDbEntity
  8
SA
100
AcDbLine
 10
231.08
 20
121.683
 30
0.0
 11
311.0800000000001
 21
121.683
 31
0.0
  0
LINE
  5
217A
330
1E
100
AcDbEntity
  8
SA
100
AcDbLine
 10
231.08
 20
122.183
 30
0.0
 11
231.08
 21
121.683
 31
0.0
  0
LINE
  5
217B
330
1E
100
AcDbEntity
  8
SA
100
AcDbLine
 10
311.0800000000001
 20
128.683
 30
0.0
 11
231.08
 21
128.683
 31
0.0
  0
LINE
  5
217C
330
1E
100
AcDbEntity
  8
SA
100
AcDbLine
 10
311.0800000000001
 20
130.683
 30
0.0
 11
311.0800000000001
 21
128.683
 31
0.0
  0
LINE
  5
217D
330
1E
100
AcDbEntity
  8
SA
100
AcDbLine
 10
231.08
 20
130.683
 30
0.0
 11
311.0800000000001
 21
130.683
 31
0.0
  0
LINE
  5
217E
330
1E
100
AcDbEntity
  8
SA
100
AcDbLine
 10
231.08
 20
131.183
 30
0.0
 11
231.08
 21
130.683
 31
0.0
  0
LINE
  5
217F
330
1E
100
AcDbEntity
  8
SA
100
AcDbLine
 10
231.08
 20
122.183
 30
0.0
 11
181.08
 21
122.183
 31
0.0
  0
LINE
  5
2180
330
1E
100
AcDbEntity
  8
SA
100
AcDbLine
 10
231.08
 20
119.183
 30
0.0
 11
231.08
 21
122.183
 31
0.0
  0
LINE
  5
2181
330
1E
100
AcDbEntity
  8
SA
100
AcDbLine
 10
181.08
 20
119.183
 30
0.0
 11
231.08
 21
119.183
 31
0.0
  0
LINE
  5
2182
330
1E
100
AcDbEntity
  8
SA
100
AcDbLine
 10
176.08
 20
117.183
 30
0.0
 11
176.08
 21
119.183
 31
0.0
  0
LINE
  5
2183
330
1E
100
AcDbEntity
  8
SA
100
AcDbLine
 10
231.08
 20
128.183
 30
0.0
 11
181.08
 21
128.183
 31
0.0
  0
LINE
  5
2184
330
1E
100
AcDbEntity
  8
SA
100
AcDbLine
 10
231.08
 20
131.183
 30
0.0
 11
231.08
 21
128.183
 31
0.0
  0
LINE
  5
2185
330
1E
100
AcDbEntity
  8
SA
100
AcDbLine
 10
181.08
 20
131.183
 30
0.0
 11
231.08
 21
131.183
 31
0.0
  0
LINE
  5
2186
330
1E
100
AcDbEntity
  8
SC
100
AcDbLine
 10
311.0800000000001
 20
129.683
 30
0.0
 11
317.08
 21
129.683
 31
0.0
  0
LINE
  5
2187
330
1E
100
AcDbEntity
  8
SC
100
AcDbLine
 10
311.0800000000001
 20
129.983
 30
0.0
 11
317.08
 21
129.983
 31
0.0
  0
LINE
  5
2188
330
1E
100
AcDbEntity
  8
SC
100
AcDbLine
 10
311.0800000000001
 20
129.383
 30
0.0
 11
317.08
 21
129.383
 31
0.0
  0
LINE
  5
2189
330
1E
100
AcDbEntity
  8
SC
100
AcDbLine
 10
311.0800000000001
 20
129.083
 30
0.0
 11
317.08
 21
129.083
 31
0.0
  0
LINE
  5
218A
330
1E
100
AcDbEntity
  8
SC
100
AcDbLine
 10
311.0800000000001
 20
130.2830000000001
 30
0.0
 11
317.08
 21
130.2830000000001
 31
0.0
  0
LINE
  5
218B
330
1E
100
AcDbEntity
  8
SC
100
AcDbLine
 10
311.0800000000001
 20
130.5830000000001
 30
0.0
 11
317.08
 21
130.5830000000001
 31
0.0
  0
LINE
  5
218C
330
1E
100
AcDbEntity
  8
SC
100
AcDbLine
 10
311.0800000000001
 20
128.783
 30
0.0
 11
317.08
 21
128.783
 31
0.0
  0
LINE
  5
218D
330
1E
100
AcDbEntity
  8
SC
100
AcDbLine
 10
311.0800000000001
 20
119.783
 30
0.0
 11
317.08
 21
119.783
 31
0.0
  0
LINE
  5
218E
330
1E
100
AcDbEntity
  8
SC
100
AcDbLine
 10
311.0800000000001
 20
121.583
 30
0.0
 11
317.08
 21
121.583
 31
0.0
  0
LINE
  5
218F
330
1E
100
AcDbEntity
  8
SC
100
AcDbLine
 10
311.0800000000001
 20
121.283
 30
0.0
 11
317.08
 21
121.283
 31
0.0
  0
LINE
  5
2190
330
1E
100
AcDbEntity
  8
SC
100
AcDbLine
 10
311.0800000000001
 20
120.083
 30
0.0
 11
317.08
 21
120.083
 31
0.0
  0
LINE
  5
2191
330
1E
100
AcDbEntity
  8
SC
100
AcDbLine
 10
311.0800000000001
 20
120.383
 30
0.0
 11
317.08
 21
120.383
 31
0.0
  0
LINE
  5
2192
330
1E
100
AcDbEntity
  8
SC
100
AcDbLine
 10
311.0800000000001
 20
120.983
 30
0.0
 11
317.08
 21
120.983
 31
0.0
  0
LINE
  5
2193
330
1E
100
AcDbEntity
  8
SC
100
AcDbLine
 10
311.0800000000001
 20
120.683
 30
0.0
 11
317.08
 21
120.683
 31
0.0
  0
LINE
  5
2194
330
1E
100
AcDbEntity
  8
HA
100
AcDbLine
 10
181.08
 20
130.583
 30
0.0
 11
221.08
 21
130.583
 31
0.0
  0
LINE
  5
2195
330
1E
100
AcDbEntity
  8
HA
100
AcDbLine
 10
181.08
 20
128.783
 30
0.0
 11
221.08
 21
128.783
 31
0.0
  0
LINE
  5
2196
330
1E
100
AcDbEntity
  8
HA
100
AcDbLine
 10
221.08
 20
130.583
 30
0.0
 11
221.08
 21
128.783
 31
0.0
  0
LINE
  5
2197
330
1E
100
AcDbEntity
  8
HA
100
AcDbLine
 10
221.08
 20
130.583
 30
0.0
 11
221.08
 21
130.983
 31
0.0
  0
LINE
  5
2198
330
1E
100
AcDbEntity
  8
HA
100
AcDbLine
 10
221.08
 20
130.983
 30
0.0
 11
229.08
 21
130.983
 31
0.0
  0
LINE
  5
2199
330
1E
100
AcDbEntity
  8
HA
100
AcDbLine
 10
229.08
 20
130.983
 30
0.0
 11
229.08
 21
129.5020003435428
 31
0.0
  0
LINE
  5
219A
330
1E
100
AcDbEntity
  8
HA
100
AcDbLine
 10
229.08
 20
128.383
 30
0.0
 11
229.08
 21
129.8639996564572
 31
0.0
  0
LINE
  5
219B
330
1E
100
AcDbEntity
  8
HA
100
AcDbLine
 10
221.08
 20
128.383
 30
0.0
 11
229.08
 21
128.383
 31
0.0
  0
LINE
  5
219C
330
1E
100
AcDbEntity
  8
HA
100
AcDbLine
 10
221.08
 20
128.783
 30
0.0
 11
221.08
 21
128.383
 31
0.0
  0
LINE
  5
219D
330
1E
100
AcDbEntity
  8
HA
100
AcDbLine
 10
231.08
 20
130.683
 30
0.0
 11
229.08
 21
130.683
 31
0.0
  0
LINE
  5
219E
330
1E
100
AcDbEntity
  8
HA
100
AcDbLine
 10
231.08
 20
128.683
 30
0.0
 11
229.08
 21
128.683
 31
0.0
  0
LINE
  5
219F
330
1E
100
AcDbEntity
  8
HA
100
AcDbLine
 10
231.08
 20
119.683
 30
0.0
 11
219.08
 21
119.683
 31
0.0
  0
LINE
  5
21A0
330
1E
100
AcDbEntity
  8
HA
100
AcDbLine
 10
231.08
 20
121.683
 30
0.0
 11
219.08
 21
121.683
 31
0.0
  0
LINE
  5
21A1
330
1E
100
AcDbEntity
  8
HA
100
AcDbLine
 10
211.08
 20
119.783
 30
0.0
 11
211.08
 21
119.383
 31
0.0
  0
LINE
  5
21A2
330
1E
100
AcDbEntity
  8
HA
100
AcDbLine
 10
211.08
 20
119.383
 30
0.0
 11
219.08
 21
119.383
 31
0.0
  0
LINE
  5
21A3
330
1E
100
AcDbEntity
  8
HA
100
AcDbLine
 10
219.08
 20
119.383
 30
0.0
 11
219.08
 21
120.8639996564572
 31
0.0
  0
LINE
  5
21A4
330
1E
100
AcDbEntity
  8
HA
100
AcDbLine
 10
219.08
 20
121.983
 30
0.0
 11
219.08
 21
120.5020003435428
 31
0.0
  0
LINE
  5
21A5
330
1E
100
AcDbEntity
  8
HA
100
AcDbLine
 10
211.08
 20
121.983
 30
0.0
 11
219.08
 21
121.983
 31
0.0
  0
LINE
  5
21A6
330
1E
100
AcDbEntity
  8
HA
100
AcDbLine
 10
211.08
 20
121.583
 30
0.0
 11
211.08
 21
121.983
 31
0.0
  0
LINE
  5
21A7
330
1E
100
AcDbEntity
  8
HA
100
AcDbLine
 10
211.08
 20
121.583
 30
0.0
 11
211.08
 21
119.783
 31
0.0
  0
LINE
  5
21A8
330
1E
100
AcDbEntity
  8
HA
100
AcDbLine
 10
181.08
 20
119.783
 30
0.0
 11
211.08
 21
119.783
 31
0.0
  0
LINE
  5
21A9
330
1E
100
AcDbEntity
  8
HA
100
AcDbLine
 10
181.08
 20
121.583
 30
0.0
 11
211.08
 21
121.583
 31
0.0
  0
LINE
  5
21AC
330
1E
100
AcDbEntity
  8
SA
100
AcDbLine
 10
80.35500000000002
 20
133.183
 30
0.0
 11
96.10160446780554
 21
133.183
 31
0.0
  0
LINE
  5
21AD
330
1E
100
AcDbEntity
  8
SA
100
AcDbLine
 10
176.08
 20
133.183
 30
0.0
 11
176.08
 21
117.183
 31
0.0
  0
LINE
  5
21AE
330
1E
100
AcDbEntity
  8
SA
100
AcDbLine
 10
176.08
 20
117.183
 30
0.0
 11
87.7367897676736
 21
117.183
 31
0.0
  0
LINE
  5
21AF
330
1E
100
AcDbEntity
  8
SA
100
AcDbLine
 10
176.08
 20
117.183
 30
0.0
 11
176.08
 21
112.183
 31
0.0
  0
LINE
  5
21B0
330
1E
100
AcDbEntity
  8
SA
100
AcDbLine
 10
176.08
 20
112.183
 30
0.0
 11
178.08
 21
112.183
 31
0.0
  0
LINE
  5
21B1
330
1E
100
AcDbEntity
  8
SA
100
AcDbLine
 10
178.08
 20
112.183
 30
0.0
 11
178.08
 21
152.183
 31
0.0
  0
LINE
  5
21B2
330
1E
100
AcDbEntity
  8
SA
100
AcDbLine
 10
178.08
 20
152.183
 30
0.0
 11
176.08
 21
152.183
 31
0.0
  0
LINE
  5
21B3
330
1E
100
AcDbEntity
  8
SA
100
AcDbLine
 10
176.08
 20
152.183
 30
0.0
 11
176.08
 21
133.183
 31
0.0
  0
LINE
  5
21B4
330
1E
100
AcDbEntity
  8
HO
100
AcDbLine
 10
339.4406668709074
 20
125.183
 30
0.0
 11
381.4389999999999
 21
125.183
 31
0.0
  0
LINE
  5
21B5
330
1E
100
AcDbEntity
  8
HO
100
AcDbLine
 10
359.36
 20
158.957
 30
0.0
 11
359.36
 21
131.319
 31
0.0
  0
LINE
  5
21B6
330
1E
100
AcDbEntity
  8
SA
100
AcDbLine
 10
50.35500000000002
 20
133.183
 30
0.0
 11
50.35500000000002
 21
117.183
 31
0.0
  0
LINE
  5
21B7
330
1E
100
AcDbEntity
  8
SA
100
AcDbLine
 10
50.35500000000002
 20
133.183
 30
0.0
 11
80.35500000000002
 21
133.183
 31
0.0
  0
LINE
  5
21B8
330
1E
100
AcDbEntity
  8
SA
100
AcDbLine
 10
50.35500000000002
 20
117.183
 30
0.0
 11
80.35500000000002
 21
117.183
 31
0.0
  0
SPLINE
  5
21B9
330
1E
100
AcDbEntity
  8
SB
100
AcDbSpline
210
0.0
220
0.0
230
1.0
 70
     8
 71
     3
 72
    10
 73
     6
 74
     4
 42
0.0000000001
 43
0.0000000001
 44
0.0000000001
 13
0.0
 23
-1.0
 33
0.0
 40
0.0
 40
0.0
 40
0.0
 40
0.0
 40
16.47429649484312
 40
44.70168477289674
 40
46.36146066138289
 40
46.36146066138289
 40
46.36146066138289
 40
46.36146066138289
 10
139.798
 20
133.183
 30
0.0
 10
132.4093924200372
 20
131.1632658565731
 30
0.0
 10
112.3609972091387
 20
125.6828789379092
 30
0.0
 10
142.3387695539107
 20
124.0094629741722
 30
0.0
 10
152.066
 20
117.7362586294954
 30
0.0
 10
152.066
 20
117.183
 30
0.0
 11
139.798
 21
133.183
 31
0.0
 11
124.281
 21
127.649
 31
0.0
 11
150.956
 21
118.417
 31
0.0
 11
152.066
 21
117.183
 31
0.0
  0
SPLINE
  5
21BA
330
1E
100
AcDbEntity
  8
SB
100
AcDbSpline
210
0.0
220
0.0
230
1.0
 70
     8
 71
     3
 72
    10
 73
     6
 74
     0
 42
0.0000000001
 43
0.0000000001
 40
0.0
 40
0.0
 40
0.0
 40
0.0
 40
9.38480394041346
 40
19.87991642194506
 40
26.78184546307163
 40
26.78184546307163
 40
26.78184546307163
 40
26.78184546307163
 10
157.824
 20
133.183
 30
0.0
 10
159.6555565481303
 20
130.8963593053365
 30
0.0
 10
163.5353596138182
 20
126.052547310376
 30
0.0
 10
180.9631978595427
 20
126.9983483579042
 30
0.0
 10
169.8365893013335
 20
118.4483276400287
 30
0.0
 10
167.8949293703444
 20
117.183
 30
0.0
  0
LINE
  5
21BB
330
1E
100
AcDbEntity
  8
SC
100
AcDbLine
 10
171.08
 20
126.5707837653117
 30
0.0
 11
171.08
 21
119.5364471471071
 31
0.0
  0
LINE
  5
21BC
330
1E
100
AcDbEntity
  8
SC
 48
0.2
100
AcDbLine
 10
171.08
 20
123.183
 30
0.0
 11
161.08
 21
123.183
 31
0.0
  0
LINE
  5
21BD
330
1E
100
AcDbEntity
  8
SC
 48
0.2
100
AcDbLine
 10
171.08
 20
121.183
 30
0.0
 11
161.08
 21
121.183
 31
0.0
  0
ARC
  5
21BE
330
1E
100
AcDbEntity
  8
SC
 48
0.2
100
AcDbCircle
 10
161.08
 20
122.183
 30
0.0
 40
1.0
100
AcDbArc
 50
90.0
 51
270.0
  0
ARC
  5
21BF
330
1E
100
AcDbEntity
  8
SC
 48
0.2
100
AcDbCircle
 10
161.06
 20
128.165
 30
0.0
 40
1.0
100
AcDbArc
 50
90.0
 51
270.0
  0
LINE
  5
21C0
330
1E
100
AcDbEntity
  8
SC
 48
0.2
100
AcDbLine
 10
167.139495247876
 20
127.165
 30
0.0
 11
161.06
 21
127.165
 31
0.0
  0
LINE
  5
21C1
330
1E
100
AcDbEntity
  8
SC
 48
0.2
100
AcDbLine
 10
161.79807672874
 20
129.165
 30
0.0
 11
161.06
 21
129.165
 31
0.0
  0
LINE
  5
21C2
330
1E
100
AcDbEntity
  8
SB
100
AcDbLine
 10
136.1611953520417
 20
132.183
 30
0.0
 11
158.6344088679985
 21
132.183
 31
0.0
  0
LINE
  5
21C3
330
1E
100
AcDbEntity
  8
SB
100
AcDbLine
 10
169.3278734707642
 20
118.183
 30
0.0
 11
151.3379965242206
 21
118.183
 31
0.0
  0
LINE
  5
21C4
330
1E
100
AcDbEntity
  8
SB
100
AcDbLine
 10
170.6391061045347
 20
119.183
 30
0.0
 11
149.5376567551294
 21
119.183
 31
0.0
  0
LINE
  5
21C5
330
1E
100
AcDbEntity
  8
SB
100
AcDbLine
 10
132.6566019004025
 20
131.183
 30
0.0
 11
159.5041640328702
 21
131.183
 31
0.0
  0
LINE
  5
21C6
330
1E
100
AcDbEntity
  8
SC
100
AcDbLine
 10
158.3597692307692
 20
131.183
 30
0.0
 11
158.093
 21
119.183
 31
0.0
  0
LINE
  5
21C7
330
1E
100
AcDbEntity
  8
SC
100
AcDbLine
 10
157.3597692307692
 20
131.183
 30
0.0
 11
157.093
 21
119.183
 31
0.0
  0
LINE
  5
21C8
330
1E
100
AcDbEntity
  8
SC
100
AcDbLine
 10
156.3597692307692
 20
131.183
 30
0.0
 11
156.093
 21
119.183
 31
0.0
  0
LINE
  5
21C9
330
1E
100
AcDbEntity
  8
SC
100
AcDbLine
 10
155.3597692307692
 20
131.183
 30
0.0
 11
155.093
 21
119.183
 31
0.0
  0
LINE
  5
21CA
330
1E
100
AcDbEntity
  8
SC
100
AcDbLine
 10
154.3597692307692
 20
131.183
 30
0.0
 11
154.093
 21
119.183
 31
0.0
  0
LINE
  5
21CB
330
1E
100
AcDbEntity
  8
SC
100
AcDbLine
 10
153.3597692307692
 20
131.183
 30
0.0
 11
153.093
 21
119.183
 31
0.0
  0
LINE
  5
21CC
330
1E
100
AcDbEntity
  8
SC
100
AcDbLine
 10
152.3597692307692
 20
131.183
 30
0.0
 11
152.093
 21
119.183
 31
0.0
  0
LINE
  5
21CD
330
1E
100
AcDbEntity
  8
SC
100
AcDbLine
 10
151.3597692307692
 20
131.183
 30
0.0
 11
151.093
 21
119.183
 31
0.0
  0
LINE
  5
21CE
330
1E
100
AcDbEntity
  8
SC
100
AcDbLine
 10
150.3597692307692
 20
131.183
 30
0.0
 11
150.093
 21
119.183
 31
0.0
  0
LINE
  5
21CF
330
1E
100
AcDbEntity
  8
SC
100
AcDbLine
 10
149.3597692307692
 20
131.183
 30
0.0
 11
149.093
 21
119.183
 31
0.0
  0
LINE
  5
21D0
330
1E
100
AcDbEntity
  8
SC
100
AcDbLine
 10
148.3597692307692
 20
131.183
 30
0.0
 11
148.1079281865474
 21
119.8545101215108
 31
0.0
  0
LINE
  5
21D1
330
1E
100
AcDbEntity
  8
SC
100
AcDbLine
 10
147.3597692307692
 20
131.183
 30
0.0
 11
147.1172563741454
 21
120.2741171760932
 31
0.0
  0
LINE
  5
21D2
330
1E
100
AcDbEntity
  8
SC
100
AcDbLine
 10
146.3597692307692
 20
131.183
 30
0.0
 11
146.1259113007731
 21
120.6634391351242
 31
0.0
  0
LINE
  5
21D3
330
1E
100
AcDbEntity
  8
SC
100
AcDbLine
 10
145.3597692307692
 20
131.183
 30
0.0
 11
145.1339911088226
 21
121.0268907082812
 31
0.0
  0
LINE
  5
21D4
330
1E
100
AcDbEntity
  8
SC
100
AcDbLine
 10
144.3597692307692
 20
131.183
 30
0.0
 11
144.1415745825663
 21
121.3680158247826
 31
0.0
  0
LINE
  5
21D5
330
1E
100
AcDbEntity
  8
SC
100
AcDbLine
 10
143.3597692307692
 20
131.183
 30
0.0
 11
143.1487264872371
 21
121.6897277995918
 31
0.0
  0
LINE
  5
21D6
330
1E
100
AcDbEntity
  8
SC
100
AcDbLine
 10
142.3597692307692
 20
131.183
 30
0.0
 11
142.1555012386338
 21
121.9944744022123
 31
0.0
  0
LINE
  5
21D7
330
1E
100
AcDbEntity
  8
SC
100
AcDbLine
 10
141.3597692307692
 20
131.183
 30
0.0
 11
141.1619455234737
 21
122.284355727189
 31
0.0
  0
LINE
  5
21D8
330
1E
100
AcDbEntity
  8
SC
100
AcDbLine
 10
140.3597692307692
 20
131.183
 30
0.0
 11
140.1681002437806
 21
122.5612116579504
 31
0.0
  0
LINE
  5
21D9
330
1E
100
AcDbEntity
  8
SC
100
AcDbLine
 10
139.3597692307692
 20
131.183
 30
0.0
 11
139.1740020220705
 21
122.8266895741076
 31
0.0
  0
LINE
  5
21DA
330
1E
100
AcDbEntity
  8
SC
100
AcDbLine
 10
138.3597692307692
 20
131.183
 30
0.0
 11
138.1796844269854
 21
123.082299483771
 31
0.0
  0
LINE
  5
21DB
330
1E
100
AcDbEntity
  8
SC
100
AcDbLine
 10
137.3597692307692
 20
131.183
 30
0.0
 11
137.1851790364424
 21
123.3294618468881
 31
0.0
  0
LINE
  5
21DC
330
1E
100
AcDbEntity
  8
SC
100
AcDbLine
 10
136.3597692307692
 20
131.183
 30
0.0
 11
136.1905164353569
 21
123.5695524555022
 31
0.0
  0
LINE
  5
21DD
330
1E
100
AcDbEntity
  8
SC
100
AcDbLine
 10
135.3597692307692
 20
131.183
 30
0.0
 11
135.1957272430784
 21
123.8039486505875
 31
0.0
  0
LINE
  5
21DE
330
1E
100
AcDbEntity
  8
SC
100
AcDbLine
 10
134.3597692307692
 20
131.183
 30
0.0
 11
134.200843283236
 21
124.0340819448715
 31
0.0
  0
LINE
  5
21DF
330
1E
100
AcDbEntity
  8
SC
100
AcDbLine
 10
133.3597692307692
 20
131.183
 30
0.0
 11
133.2058990543876
 21
124.2615041766034
 31
0.0
  0
LINE
  5
21E0
330
1E
100
AcDbEntity
  8
SC
100
AcDbLine
 10
132.3578027140267
 20
131.0945407693686
 30
0.0
 11
132.2109337555698
 21
124.4879786242496
 31
0.0
  0
LINE
  5
21E1
330
1E
100
AcDbEntity
  8
SC
100
AcDbLine
 10
131.3510559422552
 20
130.7910527658054
 30
0.0
 11
131.2159943180112
 21
124.7156163811291
 31
0.0
  0
LINE
  5
21E2
330
1E
100
AcDbEntity
  8
SC
100
AcDbLine
 10
130.3440787148613
 20
130.4771982463561
 30
0.0
 11
130.221140319369
 21
124.9470974110618
 31
0.0
  0
LINE
  5
21E3
330
1E
100
AcDbEntity
  8
SC
100
AcDbLine
 10
129.3367962957096
 20
130.1496153779391
 30
0.0
 11
129.2264526502399
 21
125.1860603914144
 31
0.0
  0
LINE
  5
21E4
330
1E
100
AcDbEntity
  8
SC
100
AcDbLine
 10
128.3290958211003
 20
129.8032272467246
 30
0.0
 11
128.2320504026866
 21
125.4378624045881
 31
0.0
  0
LINE
  5
21E5
330
1E
100
AcDbEntity
  8
SC
100
AcDbLine
 10
127.3207898278695
 20
129.4296012536465
 30
0.0
 11
127.2381284216553
 21
125.7112681021408
 31
0.0
  0
LINE
  5
21E6
330
1E
100
AcDbEntity
  8
SC
100
AcDbLine
 10
126.3115178655409
 20
129.0125233634303
 30
0.0
 11
126.2450588804604
 21
126.0230188442389
 31
0.0
  0
LINE
  5
21E7
330
1E
100
AcDbEntity
  8
SC
100
AcDbLine
 10
125.3003708062173
 20
128.5110985495676
 30
0.0
 11
125.2537804624216
 21
126.4153391400723
 31
0.0
  0
LINE
  5
21E8
330
1E
100
AcDbEntity
  8
SC
100
AcDbLine
 10
124.2812153561079
 20
127.6494347038158
 30
0.0
 11
124.2706364845974
 21
127.1735685113001
 31
0.0
  0
LINE
  5
21E9
330
1E
100
AcDbEntity
  8
SC
100
AcDbLine
 10
159.3597692307692
 20
131.183
 30
0.0
 11
159.093
 21
119.183
 31
0.0
  0
LINE
  5
21EA
330
1E
100
AcDbEntity
  8
SC
100
AcDbLine
 10
160.3409686504395
 20
130.3372991547182
 30
0.0
 11
160.093
 21
119.183
 31
0.0
  0
LINE
  5
21EB
330
1E
100
AcDbEntity
  8
SC
100
AcDbLine
 10
161.3225151376648
 20
129.5072103447817
 30
0.0
 11
161.093
 21
119.183
 31
0.0
  0
LINE
  5
21EC
330
1E
100
AcDbEntity
  8
SC
100
AcDbLine
 10
162.3076363959598
 20
128.8379243857361
 30
0.0
 11
162.093
 21
119.183
 31
0.0
  0
LINE
  5
21ED
330
1E
100
AcDbEntity
  8
SC
100
AcDbLine
 10
163.2958447608041
 20
128.3075048112593
 30
0.0
 11
163.093
 21
119.183
 31
0.0
  0
LINE
  5
21EE
330
1E
100
AcDbEntity
  8
SC
100
AcDbLine
 10
164.2866317366202
 20
127.8930781178654
 30
0.0
 11
164.093
 21
119.183
 31
0.0
  0
ARC
  5
21EF
330
1E
100
AcDbEntity
  8
SA
100
AcDbCircle
 10
359.36
 20
125.183
 30
0.0
 40
13.0
100
AcDbArc
 50
150.0220261347128
 51
25.15559070832726
  0
ARC
  5
21F0
330
1E
100
AcDbEntity
  8
SA
100
AcDbCircle
 10
359.36
 20
146.473
 30
0.0
 40
5.710000000000007
100
AcDbArc
 50
12.48428041444037
 51
165.9538949522208
  0
LINE
  5
21F1
330
1E
100
AcDbEntity
  8
SA
100
AcDbLine
 10
353.8207247673923
 20
147.858831843125
 30
0.0
 11
348.0991717970523
 21
131.6786714959809
 31
0.0
  0
LINE
  5
21F2
330
1E
100
AcDbEntity
  8
SA
100
AcDbLine
 10
364.9349890623655
 20
147.7073406962853
 30
0.0
 11
371.1270383637585
 21
130.7090119567221
 31
0.0
  0
CIRCLE
  5
21F3
330
1E
100
AcDbEntity
  8
SA
100
AcDbCircle
 10
359.36
 20
146.473
 30
0.0
 40
2.430000000000006
  0
CIRCLE
  5
21F4
330
1E
100
AcDbEntity
  8
SA
100
AcDbCircle
 10
359.36
 20
125.183
 30
0.0
 40
9.0
  0
CIRCLE
  5
21F5
330
1E
100
AcDbEntity
  8
SC
100
AcDbCircle
 10
359.36
 20
125.183
 30
0.0
 40
8.0
  0
LINE
  5
21F6
330
1E
100
AcDbEntity
  8
HA
 48
0.1
100
AcDbLine
 10
178.08
 20
148.903
 30
0.0
 11
176.08
 21
148.903
 31
0.0
  0
LINE
  5
21F7
330
1E
100
AcDbEntity
  8
HA
 48
0.1
100
AcDbLine
 10
178.08
 20
144.043
 30
0.0
 11
176.08
 21
144.043
 31
0.0
  0
CIRCLE
  5
21F8
330
1E
100
AcDbEntity
  8
SA
100
AcDbCircle
 10
359.36
 20
120.749
 30
0.0
 40
2.0
  0
LINE
  5
21F9
330
1E
100
AcDbEntity
  8
SA
100
AcDbLine
 10
359.36
 20
125.183
 30
0.0
 11
359.36
 21
122.749
 31
0.0
  0
LINE
  5
21FA
330
1E
100
AcDbEntity
  8
SA
100
AcDbLine
 10
359.36
 20
110.183
 30
0.0
 11
359.36
 21
118.749
 31
0.0
  0
LINE
  5
21FB
330
1E
100
AcDbEntity
  8
SA
100
AcDbLine
 10
359.36
 20
125.183
 30
0.0
 11
359.36
 21
127.319
 31
0.0
  0
LINE
  5
21FC
330
1E
100
AcDbEntity
  8
SA
100
AcDbLine
 10
359.36
 20
122.749
 30
0.0
 11
359.36
 21
125.183
 31
0.0
  0
LINE
  5
21FD
330
1E
100
AcDbEntity
  8
SA
100
AcDbLine
 10
359.36
 20
118.749
 30
0.0
 11
359.36
 21
110.183
 31
0.0
  0
LINE
  5
21FE
330
1E
100
AcDbEntity
  8
HO
100
AcDbLine
 10
359.36
 20
118.749
 30
0.0
 11
359.36
 21
102.359
 31
0.0
  0
LINE
  5
21FF
330
1E
100
AcDbEntity
  8
SA
100
AcDbLine
 10
359.36
 20
131.319
 30
0.0
 11
359.36
 21
140.183
 31
0.0
  0
LINE
  5
2200
330
1E
100
AcDbEntity
  8
SA
100
AcDbLine
 10
359.36
 20
127.319
 30
0.0
 11
359.36
 21
122.749
 31
0.0
  0
CIRCLE
  5
2201
330
1E
100
AcDbEntity
  8
SA
100
AcDbCircle
 10
359.36
 20
129.617
 30
0.0
 40
2.0
  0
LINE
  5
2202
330
1E
100
AcDbEntity
  8
HO
100
AcDbLine
 10
359.36
 20
125.183
 30
0.0
 11
339.6500000000001
 21
125.183
 31
0.0
  0
LINE
  5
2203
330
1E
100
AcDbEntity
  8
HO
100
AcDbLine
 10
351.7210005407454
 20
146.473
 30
0.0
 11
367.36
 21
146.473
 31
0.0
  0
LINE
  5
2204
330
1E
100
AcDbEntity
  8
HO
100
AcDbLine
 10
358.36
 20
125.183
 30
0.0
 11
339.6500000000001
 21
125.183
 31
0.0
  0
LINE
  5
2205
330
1E
100
AcDbEntity
  8
SA
100
AcDbLine
 10
100.38
 20
139.092
 30
0.0
 11
79.99300000000005
 21
110.935
 31
0.0
  0
LINE
  5
2206
330
1E
100
AcDbEntity
  8
SA
100
AcDbLine
 10
103.623
 20
139.072
 30
0.0
 11
83.22400000000005
 21
110.965
 31
0.0
  0
LINE
  5
2207
330
1E
100
AcDbEntity
  8
SA
100
AcDbLine
 10
99.34898601771806
 20
133.183
 30
0.0
 11
176.08
 21
133.183
 31
0.0
  0
LINE
  5
2208
330
1E
100
AcDbEntity
  8
SA
100
AcDbLine
 10
84.51684756898822
 20
117.183
 30
0.0
 11
80.35500000000002
 21
117.183
 31
0.0
  0
CIRCLE
  5
2209
330
1E
100
AcDbEntity
  8
SC
100
AcDbCircle
 10
359.36
 20
125.183
 30
0.0
 40
7.190575846203137
  0
LINE
  5
220A
330
1E
100
AcDbEntity
  8
SC
100
AcDbLine
 10
50.35500000000002
 20
116.183
 30
0.0
 11
50.35500000000002
 21
98.435
 31
0.0
  0
LINE
  5
220B
330
1E
100
AcDbEntity
  8
SC
100
AcDbLine
 10
176.08
 20
116.183
 30
0.0
 11
176.08
 21
98.435
 31
0.0
  0
LINE
  5
220C
330
1E
100
AcDbEntity
  8
SC
100
AcDbLine
 10
52.85500000000002
 20
100.435
 30
0.0
 11
173.58
 21
100.435
 31
0.0
  0
SOLID
  5
220D
330
1E
100
AcDbEntity
  8
SC
100
AcDbTrace
 10
52.85500000000002
 20
100.8516666666666
 30
0.0
 11
52.85500000000002
 21
100.0183333333333
 31
0.0
 12
50.35500000000002
 22
100.435
 32
0.0
 13
50.35500000000002
 23
100.435
 33
0.0
  0
SOLID
  5
220E
330
1E
100
AcDbEntity
  8
SC
100
AcDbTrace
 10
173.58
 20
100.8516666666666
 30
0.0
 11
173.58
 21
100.0183333333333
 31
0.0
 12
176.08
 22
100.435
 32
0.0
 13
176.08
 23
100.435
 33
0.0
  0
TEXT
  5
22F3
330
1E
100
AcDbEntity
  8
MO
100
AcDbText
 10
234.7339288388191
 20
144.6010000188304
 30
0.0
 40
2.799999999999999
  1
圧着端子
  7
0
100
AcDbText
  0
LEADER
  5
22F4
330
1E
100
AcDbEntity
  8
SC
100
AcDbLeader
  3
Standard
 76
     3
 10
225.9496668709074
 20
130.983
 30
0.0
 10
231.6806668709074
 20
144.262
 30
0.0
 10
249.0686668709074
 20
144.262
 30
0.0
1001
ACAD
1000
DSTYLE
1002
{
1070
   147
1040
0.09
1070
    77
1070
     0
1002
}
  0
TEXT
  5
22F5
330
1E
100
AcDbEntity
  8
MO
100
AcDbText
 10
108.3456336221593
 20
101.3717241558108
 30
0.0
 40
6.0
  1
B
  7
0
100
AcDbText
  0
SOLID
  5
22FD
330
1E
100
AcDbEntity
  8
SC
100
AcDbTrace
 10
268.7841223069518
 20
132.4610741588231
 30
0.0
 11
267.8096668709073
 21
130.683
 31
0.0
 12
268.1547763399798
 22
132.6810016430092
 32
0.0
 13
268.1547763399798
 23
132.6810016430092
 33
0.0
1001
ACAD
1000
DSTYLE
1002
{
1070
   147
1040
0.09
1070
    77
1070
     0
1002
}
  0
TEXT
  5
2379
330
1E
100
AcDbEntity
  8
MO
100
AcDbText
 10
289.0471850988735
 20
143.8012497371203
 30
0.0
 40
2.799999999999999
  1
（C）
  7
0
100
AcDbText
  0
TEXT
  5
237A
330
1E
100
AcDbEntity
  8
MO
100
AcDbText
 10
275.4264335356457
 20
147.6672498581718
 30
0.0
 40
2.799999999999999
  1
耐熱リード線
  7
0
100
AcDbText
  0
LINE
  5
237B
330
1E
100
AcDbEntity
  8
SC
100
AcDbLine
 10
273.0375712661461
 20
147.2839408569561
 30
0.0
 11
297.1944332990009
 21
147.2839408569561
 31
0.0
1001
ACAD
1000
DSTYLE
1002
{
1070
   147
1040
0.09
1070
    77
1070
     0
1002
}
  0
LINE
  5
237C
330
1E
100
AcDbEntity
  8
SC
100
AcDbLine
 10
268.4694493234657
 20
132.5710379009161
 30
0.0
 11
273.0375712661461
 21
147.2839408569561
 31
0.0
1001
ACAD
1000
DSTYLE
1002
{
1070
   147
1040
0.09
1070
    77
1070
     0
1002
}
  0
TEXT
  5
2390
330
1E
100
AcDbEntity
  8
MO
100
AcDbText
 10
41.35974096033772
 20
141.9889998390999
 30
0.0
 40
6.0
  1
Aφ
 50
90.0
  7
0
100
AcDbText
  0
LINE
  5
2391
330
1E
100
AcDbEntity
  8
SC
100
AcDbLine
 10
42.00916863072609
 20
133.183
 30
0.0
 11
42.00916863072609
 21
154.7219999521312
 31
0.0
  0
SOLID
  5
2392
330
1E
100
AcDbEntity
  8
SC
100
AcDbTrace
 10
41.59250196405935
 20
135.683
 30
0.0
 11
42.42583529739272
 21
135.683
 31
0.0
 12
42.00916863072609
 22
133.183
 32
0.0
 13
42.00916863072609
 23
133.183
 33
0.0
  0
SOLID
  5
2393
330
1E
100
AcDbEntity
  8
SC
100
AcDbTrace
 10
41.59250196405935
 20
114.683
 30
0.0
 11
42.42583529739272
 21
114.683
 31
0.0
 12
42.00916863072609
 22
117.183
 32
0.0
 13
42.00916863072609
 23
117.183
 33
0.0
  0
LINE
  5
2394
330
1E
100
AcDbEntity
  8
SC
100
AcDbLine
 10
42.00916863072609
 20
133.183
 30
0.0
 11
42.00916863072609
 21
109.4609999521312
 31
0.0
  0
LINE
  5
2395
330
1E
100
AcDbEntity
  8
SC
100
AcDbLine
 10
49.35500000000001
 20
117.183
 30
0.0
 11
40.00916863072609
 21
117.183
 31
0.0
  0
LINE
  5
2396
330
1E
100
AcDbEntity
  8
SC
100
AcDbLine
 10
49.35500000000001
 20
133.183
 30
0.0
 11
40.00916863072609
 21
133.183
 31
0.0
  0
LINE
  5
23B7
330
1E
100
AcDbEntity
  8
SC
100
AcDbLine
 10
350.9170000000001
 20
146.473
 30
0.0
 11
329.1576668709073
 21
146.473
 31
0.0
  0
LINE
  5
23B8
330
1E
100
AcDbEntity
  8
SC
100
AcDbLine
 10
338.898
 20
125.183
 30
0.0
 11
329.7431686307261
 21
125.183
 31
0.0
  0
SOLID
  5
23BA
330
1E
100
AcDbEntity
  8
SC
100
AcDbTrace
 10
331.3265019640594
 20
143.973
 30
0.0
 11
332.1598352973928
 21
143.973
 31
0.0
 12
331.7431686307261
 22
146.473
 32
0.0
 13
331.7431686307261
 23
146.473
 33
0.0
  0
SOLID
  5
23BB
330
1E
100
AcDbEntity
  8
SC
100
AcDbTrace
 10
331.3265019640594
 20
127.683
 30
0.0
 11
332.1598352973928
 21
127.683
 31
0.0
 12
331.7431686307261
 22
125.183
 32
0.0
 13
331.7431686307261
 23
125.183
 33
0.0
  0
LINE
  5
23BC
330
1E
100
AcDbEntity
  8
SC
100
AcDbLine
 10
331.7431686307261
 20
125.183
 30
0.0
 11
331.7431686307261
 21
146.473
 31
0.0
  0
TEXT
  5
23C3
330
1E
100
AcDbEntity
  8
MO
100
AcDbText
 10
330.6069345353088
 20
133.8260793991443
 30
0.0
 40
6.0
  1
D
 50
90.0
  7
0
100
AcDbText
  0
TEXT
  5
23CD
330
1E
100
AcDbEntity
  8
MO
100
AcDbText
 10
91.28012879570208
 20
33.7553613470516
 30
0.0
 40
3.499999999999999
  1
D
  7
0
100
AcDbText
  0
TEXT
  5
23CE
330
1E
100
AcDbEntity
  8
MO
100
AcDbText
 10
102.1781545747246
 20
33.61824969380627
 30
0.0
 40
4.375
  1
ピッチ
  7
0
 72
     1
 11
109.6156545747246
 21
33.61824969380627
 31
0.0
100
AcDbText
  0
TEXT
  5
23CF
330
1E
100
AcDbEntity
  8
MO
100
AcDbText
 10
150.2635240194453
 20
32.82492724811004
 30
0.0
 40
3.0625
  1
mm
  7
0
 72
     1
 11
154.055190686112
 21
32.82492724811004
 31
0.0
100
AcDbText
  0
LEADER
  5
23D0
330
1E
100
AcDbEntity
  8
SC
100
AcDbLeader
  3
Standard
 76
     2
 10
361.0182086550441
 20
148.2493006660858
 30
0.0
 10
376.3868197508727
 20
165.0233112752661
 30
0.0
1001
ACAD
1000
DSTYLE
1002
{
1070
   147
1040
0.09
1070
    77
1070
     0
1002
}
  0
LEADER
  5
23D2
330
1E
100
AcDbEntity
  8
SC
100
AcDbLeader
  3
Standard
 76
     2
 10
357.7017913449559
 20
144.6966993339142
 30
0.0
 10
352.9445146080428
 20
139.4372988036381
 30
0.0
1001
ACAD
1000
DSTYLE
1002
{
1070
   147
1040
0.09
1070
    77
1070
     0
1002
}
  0
LINE
  5
23D3
330
1E
100
AcDbEntity
  8
SC
100
AcDbLine
 10
361.0182086550441
 20
148.2493006660858
 30
0.0
 11
357.7017913449559
 21
144.6966993339142
 31
0.0
  0
TEXT
  5
23DA
330
1E
100
AcDbEntity
  8
MO
100
AcDbText
 10
367.827942974501
 20
157.8776579688539
 30
0.0
 40
4.8
  1
5φ
 50
48.57814639674835
  7
0
100
AcDbText
  0
ENDSEC
  0
SECTION
  2
OBJECTS
  0
DICTIONARY
  5
C
330
0
100
AcDbDictionary
281
     1
  3
ACAD_COLOR
350
1793
  3
ACAD_GROUP
350
D
  3
ACAD_LAYOUT
350
19
  3
ACAD_MATERIAL
350
1792
  3
ACAD_MLINESTYLE
350
16
  3
ACAD_PLOTSETTINGS
350
18
  3
ACAD_PLOTSTYLENAME
350
E
  3
ACAD_TABLESTYLE
350
17A5
  3
ACDBHEADERROUNDTRIPXREC
350
23E0
  3
AcDbVariableDictionary
350
17B5
  0
DICTIONARY
  5
1793
102
{ACAD_REACTORS
330
C
102
}
330
C
100
AcDbDictionary
281
     1
  0
DICTIONARY
  5
D
102
{ACAD_REACTORS
330
C
102
}
330
C
100
AcDbDictionary
281
     1
  0
DICTIONARY
  5
19
102
{ACAD_REACTORS
330
C
102
}
330
C
100
AcDbDictionary
281
     1
  3
Model
350
21
  3
ﾚｲｱｳﾄ1
350
1D
  0
DICTIONARY
  5
1792
102
{ACAD_REACTORS
330
C
102
}
330
C
100
AcDbDictionary
281
     1
  0
DICTIONARY
  5
16
102
{ACAD_REACTORS
330
C
102
}
330
C
100
AcDbDictionary
281
     1
  3
Standard
350
17
  0
DICTIONARY
  5
18
102
{ACAD_REACTORS
330
C
102
}
330
C
100
AcDbDictionary
281
     1
  0
ACDBDICTIONARYWDFLT
  5
E
102
{ACAD_REACTORS
330
C
102
}
330
C
100
AcDbDictionary
281
     1
  3
Normal
350
F
100
AcDbDictionaryWithDefault
340
F
  0
DICTIONARY
  5
17A5
102
{ACAD_REACTORS
330
C
102
}
330
C
100
AcDbDictionary
281
     1
  3
Standard
350
17A6
  0
DICTIONARY
  5
23E0
102
{ACAD_REACTORS
330
C
102
}
330
C
100
AcDbDictionary
281
     1
  3
COLORDICT
350
23E2
  3
MATERIALDICT
350
23E1
  0
DICTIONARY
  5
17B5
102
{ACAD_REACTORS
330
C
102
}
330
C
100
AcDbDictionary
281
     1
  3
CTABLESTYLE
350
17B6
  3
DIMASSOC
350
1C8D
  3
PROJECTNAME
350
1C8E
  0
LAYOUT
  5
21
102
{ACAD_XDICTIONARY
360
23E5
102
}
102
{ACAD_REACTORS
330
19
102
}
330
19
100
AcDbPlotSettings
  1

  2
PrimoPDF
  4
A4
  6
HYOU
 40
3.174999952316284
 41
3.174999952316284
 42
3.175003051757812
 43
3.17498779296875
 44
210.0156707763672
 45
297.0106506347656
 46
-1.0
 47
10.0
 48
0.0
 49
0.0
140
0.0
141
0.0
142
1.0
143
1.458272291292898
 70
 11952
 72
     1
 73
     1
 74
     2
  7
monochrome.ctb
 75
     0
147
0.6857429891323
148
0.0
149
0.0
100
AcDbLayout
  1
Model
 70
     1
 71
     0
 10
0.0
 20
0.0
 11
12.0
 21
9.0
 12
0.0
 22
0.0
 32
0.0
 14
0.0
 24
0.0
 34
0.0
 15
0.0
 25
0.0
 35
0.0
146
0.0
 13
0.0
 23
0.0
 33
0.0
 16
1.0
 26
0.0
 36
0.0
 17
0.0
 27
1.0
 37
0.0
 76
     0
330
1E
1001
ACAD_PSEXT
1000
FX DocuPrint 205
1000
FX DocuPrint 205
1000
USB001
1000

1070
     0
  0
LAYOUT
  5
1D
102
{ACAD_XDICTIONARY
360
23E3
102
}
102
{ACAD_REACTORS
330
19
102
}
330
19
100
AcDbPlotSettings
  1

  2
EPSON LP-1500S
  4

  6

 40
0.0
 41
0.0
 42
0.0
 43
0.0
 44
0.0
 45
0.0
 46
0.0
 47
0.0
 48
0.0
 49
0.0
140
0.0
141
0.0
142
1.0
143
1.0
 70
   688
 72
     0
 73
     0
 74
     5
  7
monochrome.ctb
 75
    16
147
1.0
148
0.0
149
0.0
100
AcDbLayout
  1
ﾚｲｱｳﾄ1
 70
     0
 71
     1
 10
0.0
 20
0.0
 11
12.0
 21
9.0
 12
0.0
 22
0.0
 32
0.0
 14
1.000000000000000E+20
 24
1.000000000000000E+20
 34
1.000000000000000E+20
 15
-1.000000000000000E+20
 25
-1.000000000000000E+20
 35
-1.000000000000000E+20
146
0.0
 13
0.0
 23
0.0
 33
0.0
 16
1.0
 26
0.0
 36
0.0
 17
0.0
 27
1.0
 37
0.0
 76
     0
330
1A
  0
MLINESTYLE
  5
17
102
{ACAD_REACTORS
330
16
102
}
330
16
100
AcDbMlineStyle
  2
STANDARD
 70
     0
  3

 62
   256
 51
90.0
 52
90.0
 71
     2
 49
0.5
 62
   256
  6
BYLAYER
 49
-0.5
 62
   256
  6
BYLAYER
  0
ACDBPLACEHOLDER
  5
F
102
{ACAD_REACTORS
330
E
102
}
330
E
  0
ACAD_PROXY_OBJECT
  5
17A6
102
{ACAD_REACTORS
330
17A5
102
}
330
17A5
100
AcDbProxyObject
 90
      499
 91
      503
 95
       25
 70
     0
 93
     1841
310
4214DD185B99185C9928B81E85EB51B8AE3F2E07A17AD46E2B8FC02B5E8DC0F42B1CFD028000000C1008070000C3001FDFF8000000C1003FBFF000000182007F7FE00000030400FEFFC00000060801FDFF8000000C1003FBFF00000018200000000000000681FA0B0000001820100E000186003FBFF000000182007F7FE000
310
00030400FEFFC00000060801FDFF8000000C1003FBFF000000182007F7FE000000304000AD7A3703D0AC73F4160000003040201C00030C007F7FE00000030400FEFFC00000060801FDFF8000000C1003FBFF000000182007F7FE00000030400FEFFC000000608000
340
11
340
11
340
11
 94
        0
1001
ACAD
1000
AcRTDxfName
1000
TABLESTYLE
  0
XRECORD
  5
23E2
102
{ACAD_REACTORS
330
23E0
102
}
330
23E0
100
AcDbXrecord
280
     1
340
1793
  0
XRECORD
  5
23E1
102
{ACAD_REACTORS
330
23E0
102
}
330
23E0
100
AcDbXrecord
280
     1
340
1792
  0
DICTIONARYVAR
  5
17B6
102
{ACAD_REACTORS
330
17B5
102
}
330
17B5
100
DictionaryVariables
280
     0
  1
STANDARD
  0
DICTIONARYVAR
  5
1C8D
102
{ACAD_REACTORS
330
17B5
102
}
330
17B5
100
DictionaryVariables
280
     0
  1
1
  0
DICTIONARYVAR
  5
1C8E
102
{ACAD_REACTORS
330
17B5
102
}
330
17B5
100
DictionaryVariables
280
     0
  1

  0
DICTIONARY
  5
23E5
330
21
100
AcDbDictionary
280
     1
281
     1
  3
ACAD_XREC_ROUNDTRIP
360
23E6
  0
DICTIONARY
  5
23E3
330
1D
100
AcDbDictionary
280
     1
281
     1
  3
ACAD_XREC_ROUNDTRIP
360
23E4
  0
XRECORD
  5
23E6
102
{ACAD_REACTORS
330
23E5
102
}
330
23E5
100
AcDbXrecord
280
     1
102
SHADEPLOT
 70
     0
102
SHADEPLOTRESLEVEL
 70
     2
102
SHADEPLOTCUSTOMDPI
 70
   300
  0
XRECORD
  5
23E4
102
{ACAD_REACTORS
330
23E3
102
}
330
23E3
100
AcDbXrecord
280
     1
102
SHADEPLOT
 70
     0
102
SHADEPLOTRESLEVEL
 70
     2
102
SHADEPLOTCUSTOMDPI
 70
   300
  0
ENDSEC
  0
EOF
